PrimaNota.ru - самый крупный в мире бесплатный архив песенных текстов, аккордов, табулатур и нот


Fraternal Twin - Skin Gets Hot - таба, видео

Регистрация Запомнить меня
Войти через:  Facebook Google Twitter Vk Yandex Mail.ru

Fraternal Twin - Skin Gets Hot - таба, видео

Печатать
Просмотров: 46
Уроки эстрадного вокала в Санкт-Петербурге
-------------------------------------------------------------------------------
                        Skin Gets Hot - Fraternal Twin
-------------------------------------------------------------------------------

Tuning: Standard

Intro:
e|---------------------------------------------------------------------------|
B|---------------------------------------------------------------------------|
G|--10--12--8--12--10-----7--------------------------------------------------|
D|---------------------8-----------------------------------------------------|
A|---------------------------------------------------------------------------|
E|---------------------------------------------------------------------------|

e|---------------------------------------------------------------------------|
B|---------------------------------------------------------------------------|
G|---------------------------------------------------------------------------|
D|--6p5---5-6p5---5-6p5---5--5-----------------------------------------------|
A|------6-------6-------6-------6--------------------------------------------| 4x
E|---------------------------------------------------------------------------|

Verse:
e|---------------------------------------------------------------------------|
B|---------------------------------------------------------------------------|
G|---------------------------------------------------------------------------|
D|--6p5---5-6p5---5-6p5---5--5-----------------------------------------------|
A|------6-------6-------6-------6--------------------------------------------| 3x
E|---------------------------------------------------------------------------|

e|---------------------------------------------------------------------------|
B|---------------------------------------------------------------------------|
G|---------------------------------------------------------------------------|
D|--6p5---5-6p5---5-6p5---5--8-----------------------------------------------|
A|------6-------6-------6----------------------------------------------------|
E|---------------------------------------------------------------------------|

Chorus: Eb Cm Ab Eb

Bridge
e|---------------------------------------------------------------------------|
B|---------------------------------------------------------------------------|
G|---------------------------------------------------------------------------|
D|--6p5---5-6p5---5-6p5---5--5-----------------------------------------------|
A|------6-------6-------6-------6--------------------------------------------| 4x
E|---------------------------------------------------------------------------|

Verse:
e|---------------------------------------------------------------------------|
B|---------------------------------------------------------------------------|
G|---------------------------------------------------------------------------|
D|--6p5---5-6p5---5-6p5---5--5-----------------------------------------------|
A|------6-------6-------6-------6--------------------------------------------| 3x
E|---------------------------------------------------------------------------|

e|---------------------------------------------------------------------------|
B|---------------------------------------------------------------------------|
G|---------------------------------------------------------------------------|
D|--6p5---5-6p5---5-6p5---5--8-----------------------------------------------|
A|------6-------6-------6----------------------------------------------------|
E|---------------------------------------------------------------------------|

Chorus: Eb Cm Ab Eb

Outro:
e|---------------------------------------------------------------------------|
B|------------------------------------------9--11----------------------------|
G|--10--12--8--12--10-----7--10--12--8--12-------------10--10--12--8--12--10-|
D|---------------------8--------------------------8h10-----------------------|
A|---------------------------------------------------------------------------|
E|---------------------------------------------------------------------------|

e|----------------8--7-------------------------------------------------------|
B|--9-11----9--8--------------4----------------------------------------------|
G|-------8--------------------5----------------------------------------------|
D|----------------------------6----------------------------------------------|
A|----------------------------6----------------------------------------------|
E|----------------------------4----------------------------------------------|


************************************

| /   slide up
| \   slide down
| h   hammer-on
| p   pull-off
| ~   vibrato
| +   harmonic
| x   Mute note
| b   Bend
| pb  Pre-bend
| br  Bend release
| pbr Pre-bend release
| brb Bend release bend

************************************
Добавлено: 18.12.2015
Другие материалы по этой песне:
  • Аккорды и текст

Страница создана 18.12.2015
http://primanota.ru/fraternal-twin/skin-gets-hot-chords.htm
Привет, Гость.
Предлагаем пройти революционный курс по гитаре.
Подарок от PrimaNota.Ru, забирай!