PrimaNota.ru - самый крупный в мире бесплатный архив песенных текстов, аккордов, табулатур и нот


Шуберт Франц - Форель - квинтет в А, Ор. 114 - 4-ая часть - аккорды и текст, видео

Регистрация Запомнить меня
Войти через:  Facebook Google Twitter Vk Yandex Mail.ru

Шуберт Франц - Форель - квинтет в А, Ор. 114 - 4-ая часть - аккорды и текст, видео

Печатать
Просмотров: 420
Форель - квинтет в А, Ор. 114 - 4-ая часть
Шуберт Франц
Размер: 2/4
allegretto
E|------------------|----------0---0---|----------------|
B|------------------|--1-----1---------|--1-------------|
G|--------------0---|--------0-----0---|----------0---0-|
D|------------------|--------2-----2---|------2---------|
A|------------------|--3-------3-------|--3-------------|
E|------------------|------------------|----------------|
 
E|------------------|------------------|----------0---0-|
B|----------3-1-----|------------------|--1-----1-------|
G|--0-----0-----0---|--0-----------0---|--------0-----0-|
D|------0---------2-|------0---3-------|--------2-----2-|
A|------------------|------------------|--3-------3-----|
E|--3---------------|--3---------------|----------------|

E|------------------|------------------|----------------|
B|--1-----------1---|--0-----0-1-------|----------------|
G|----------0-------|------2-----------|--0-----------0-|
D|------2-----------|--0-----------4---|------0---------|
A|--3---------------|------------------|----------------|
E|------------------|------------------|----------3-----|

E|------------------|------------------|------------1-----|
B|--0-----0-1-0---0-|--1-----------1---|--------------3---|
G|--------------2---|----------0-------|--0-----0-0-----0-|
D|--------0-3-------|------2-----------|----------0-------|
A|------------------|--3---------------|------------------|
E|--3---------------|------------------|--3---------------|

E|------------------|------------------|----------------|
B|--1-----------1---|--------------1---|--1-------------|
G|------0-----------|--2-----2-2-------|----------0---0-|
D|------2-----------|------------------|------2---------|
A|--3-------3-------|------------------|--3-------------|
E|------------------|--1---------------|----------------|

E|------------------|------------------|------------------|
B|----------3---0---|--1-----------1---|--0---------1-0-3-|
G|--0-----0---------|----------0-------|------2-2-2-------|
D|------0-----------|------2-----------|------------------|
A|------------------|--3---------------|------------------|
E|--3---------------|------------------|--1---------------|

E|------------------|------------------|------------|
B|--1---------------|----------3---0---|--1---------|
G|----------0---0---|--0-----0---------|------0-----|
D|------2-----------|------0-----------|------2-----|
A|--3---------------|------------------|----------3-|
E|------------------|--3---------------|------------|
Добавлено: 06.02.2014
Другие материалы по этой песне:
  • Аккорды и текст

Страница создана 06.02.2014
http://primanota.ru/franz-schubert/forel-kvintet-v-a-or-114-4-aya-chast-chords.htm
Привет, Гость.
Предлагаем пройти революционный курс по гитаре.
Подарок от PrimaNota.Ru, забирай!