PrimaNota.ru - самый крупный в мире бесплатный архив песенных текстов, аккордов, табулатур и нот


Лист Ференц - Hungarian Rhapsody 2 - таба, видео

Регистрация Запомнить меня
Войти через:  Facebook Google Twitter Vk Yandex Mail.ru

Лист Ференц - Hungarian Rhapsody 2 - таба, видео

Печатать
Просмотров: 221
HUNGARIAN RHAPSODY #2
                           As recorded by Franz Liszt

Arranged by john316

Gtr I (E A D G B E) - 'Untitled'

 Intro
  Q=48
 2/4
  Gtr I
            |-3-|                            |-3-|          |---5---|
  a Q  a E. T T T   Q  a E T T T T   Q  a E. T T T   Q  a E T T T T T
|-----------------|----------------|---------------|------------------|
|-----------------|----------4-2---|---------------|------------------|
|-5-5--0-0--5-3-5-|-3------5-----5-|-5--0-0--5-3-5-|-3------1-0-3-1-0-|
|------2-2--------|----3-3---------|----2-2--------|----3-3-----------|
|------3-3--------|----1-1---------|----3-3--------|----1-1-----------|
|-----------------|----3-3---------|---------------|----3-3-----------|


                                                      H.=H         Q=40
                     |---5---|              |-3-| |-3-| |-3-| |-3--|
  Q  a Q    a Q  a E T T T T T   Q  a Q     S S S S S S S S S S S. T
|---------|--------------------|---------|----------------------------|
|---------|--------------------|---------|----------------------------|
|-0--0-0--|-0-0--0-0-1-0-3-1-0-|-0-------|------0-3-1-0---------1--0--|
|----2-2--|------1-1-----------|----0-0--|-^3h6---------3-1-3-0-------|
|----3-3--|------3-3-----------|----3-3--|-^5-------------------------|
|---------|--------------------|----3-3--|-^7-------------------------|


 Lassan
  Q=55
  E. S Q    E. S E. T T   e. S Q
|---------|-------------|---------|
|---------|-------------|------4--|
|------5--|------5------|------5--|
|----5----|----5--------|----5----|
|-3-------|-3-----------|-3----3--|
|---------|---------3-3-|---------|


  +S  S S S  S S S S   e. T T e.. T   E. S E. S
|--------------------|--------------|------------|
|--------------------|--------------|------4-----|
|--------------------|--------------|------5-----|
|---------0-^1---1-0-|--------------|----5----0--|
|-(3)-2-3------------|-3--3-5-3---2-|-3----------|
|-----------^1-3-----|--------------|------------|


  H=H
                                                       |-3-|
  e. S Q     S  S S S  S S S S   e. T T e. S   Q   E S T T T   E. S  Q
|------3--|--------------------|-------------|---------------|----------|
|------4--|--------------------|-------------|---------------|-1----^1--|
|----3----|-----------^0---0---|-------------|----^0-------0-|----0-^0--|
|-1----1--|-(1)-0-1-3----0---3-|-1--1-3-1--0-|-1--^1-0---1---|------^1--|
|-1-------|--1--------^1-------|-------------|----^2---3-----|-3--------|
|---------|-----------^4-------|-------------|---------------|----------|


                       Q=69               H.=H
   S  S S S  S S S S   e. T T e. S   E. S E. S    E. S Q
|--------------------|-------------|-----------|-^3-------|
|-(1)-0-1-3-^4---4-3-|-1--1-3-1--0-|-1-------4-|----------|
|-----------^2-2-----|--------0----|----0-0--3-|-^0----3--|
|---------0-^3---1-0-|--------1----|------1--5-|-^0--0-5--|
|--3--2-3------0-----|-3-----------|-3-------4-|-^1-------|
|--------------------|-------------|-----------|-------3--|


  Q=48
      |----6----| |-3-|  |------7------|
  T T T T T T T T T T T  T T T T T  T  T X  X  X  X X  X  X X
|----------------------------------------8-10-11-10-8---------|
|------------------------------7S8-10-11--------------11-10-8S|
|-0---0---0-------0--------7-8--------------------------------|
|---4---4---4-3-4---7-8-10------------------------------------|
|-1-----------------------------------------------------------|
|-------------------------------------------------------------|


  H.=H                                              Q=40
 3/4
                   |-----7-----| |-3-|     |-3-|
  X  X X X X X X X T T T T T T T T T T T T S S S E. S
|--------------------------------------------------------|
|-7-10-8-7-----------6-----------------------------------|
|----------8-7-6-8-7---8-7-5-----------------------------|
|----------------------------8-7-5-4---4-8-8-8-8-8--7----|
|------------------------------------8-------------------|
|--------------------------------------------------------|


  Q=55                        H=H
 2/4
  e. T T E. S   E. S E. T T   q    Q     S  S S S  S S  S S   e. T T  e. S
|-------------|-------------|---------|-----------^6--------|--------------|
|-------------|-------------|-8--^-8--|-(8)-6-8-9-^8----9-8-|-6--6-8-^6--5-|
|-0--0-2-0----|------3--0-0-|-8--^-8--|-(8)----------0-10-8-|-7------^7--6-|
|--------0--4-|-5----5------|----^-8--|---------------------|--------^8----|
|--------1----|----5--------|-6--^10--|--6------------------|--------^8----|
|-3-----------|-3-----------|---------|---------------------|-6------------|


  Q=H.=H       Q=65  H=H                    Q=75H.=H       Q=50
  q    Q    q   Q     S  S S S S S S S   e. T T  e. S   Q   Q
|---------|--------|-----------3-------|--------------|--------|
|-6--^-8--|-4--^4--|-(4)---4-6-4---6-4-|-3--3-4-^3--1-|-3--^0--|
|-7--^-7--|-5--^5--|-(5)-7-------0-7-5-|-4------^4--2-|-4--^0--|
|---------|----^5--|-------------------|--------^0----|----^0--|
|----^10--|-3--^6--|--6----------------|--------------|--------|
|-6--^-7--|--------|-------------------|-3------------|-3------|


  Q=70         H=H
   a E. S a E. S    a E. S a E. S   a  E. S a  E. S   a E. S a E. S
|----------------|----------------|-----------------|---------------|
|---------8p0----|-------6-8p4----|-8-(8)---8-(8)---|-8p4--8-8p6----|
|-12p7--0------5-|-12p7---------7-|----5--0----5--7-|-------------8-|
|----------------|----------------|-----------------|---------------|
|----------------|----------------|-----------------|---------------|
|----------------|----------------|-----------------|---------------|


   a E.  a S a E. a  S    a  E. a S a E. a  S    a  E  E a  E. S
|-----------------------|----------------------|------------------|
|------------8p0--8-(8)-|-8-(8)-8p6-8p4--8-(8)-|-8-(8)---8-(8)----|
|-12p7--12p0---------5--|----7--------------7--|----5-------5--7--|
|-----------------------|----------------------|------------------|
|-----------------------|----------------------|------------------|
|-----------------------|----------------------|------------------|


                   Q=85
                    |--3--|  |--3--|  |--3--|  |--3--|
  a e e a e a  e    S  S  S  s  S  S  s  S  S  s  S  S
|---------8---11-|-15----15----15-------15-------15----|
|-8p4-8-8---8----|-------------------12-------13-------|
|----------------|----12----12----12-------12-------12-|
|----------------|-------------------------------------|
|----------------|-------------------------------------|
|----------------|-------------------------------------|


   |--3--|  |--3--|  |--3--|  |--3--|    |--3--|  |--3--|  |--3--|  |--3--|
   s  S  S  s  S  S  s  S  S  s  S  S    s  S  S  S  S  S  s  S  S  s  S  S
|----15----13-15-------15-------15----|----15----15----15----15-------15----|
|-15----------------16-------15-------|-13----------------13-------15-------|
|-------12-------12-------12-------12-|-------12----12----------12-------12-|
|-------------------------------------|-------------------------------------|
|-------------------------------------|-------------------------------------|
|-------------------------------------|-------------------------------------|


   |--3--|  |--3--|  |--3--|  |--3--|
   s  S  S  s  S  S  S  S  S  s  S  S
|----15----15----15-13-15-------15----|
|-16-------------------------16-------|
|-------12----12----------12-------12-|
|-------------------------------------|
|-------------------------------------|
|-------------------------------------|


   |--3--|  |--3--|  |--3--|  |--3--|    |--3--|  |--3--|  |--3--|  |--3--|
   s  S  S  S  S  S  s  S  S  s  S  S    s  S  S  s  S  S  s  S  S  s  S  S
|----15----15----15----15-------15----|----15----13-15-------15-------15----|
|-15----------------12-------13-------|-15----------------16-------15-------|
|-------12----12----------12-------12-|-------12-------12-------12-------12-|
|-------------------------------------|-------------------------------------|
|-------------------------------------|-------------------------------------|
|-------------------------------------|-------------------------------------|


   |--3--|  |--3--|  |--3--|  |--3--|
   s  S  S  S  S  S  s  S  S  s  S  S
|----15----15----15----15-------15----|
|-13----------------13-------12-------|
|-------12----12----------12-------12-|
|-------------------------------------|
|-------------------------------------|
|-------------------------------------|


                 H.=H              Q=40Q=88
   |--3--|  |--3--|  |--3--|  |-3--|
   s  S  S  S  S  S  S  S  S  S  S S   s. T s. T s. T s. T
|----15----15----15-11---------------|-----------4----6--4-|
|-13-------------------13------------|------6--8----8------|
|-------12----12----------12-------0-|-7--8----------------|
|----------------------------13------|---------------------|
|-------------------------------15---|---------------------|
|------------------------------------|---------------------|


                                    |-3-|
  e a  e  a  e  a  s  T T   s. T s. X X X s. T s. T
|-------------------------|-------------------------|
|-8----8-----8-----8------|-----------4-6-4----4--6-|
|---0-(0)-------------5-7-|-5----5--7--------7------|
|---------7-(7)-9-(9)-----|----9--------------------|
|-------------------------|-------------------------|
|-------------------------|-------------------------|


  s. T s. T  s. T  s.  T   s. T  s. T s. T  s. T
|------4-----------------|-----------------------|
|-7--8----8--------8-----|----------8-9--8-11--9-|
|-----------10--8--------|-7--8-10----7----------|
|-----------------12--10-|-9---------------------|
|------------------------|-----------------------|
|------------------------|-----------------------|


                        H.=H
  E a  e  a  e  a  e      s  s s s s s s s
|------------5-----7--|-^-8----------------|
|-8----8-----8-----8--|-^-8----------------|
|---0-(0)-7-(7)-------|-^-9----------------|
|---------------9-(9)-|-^10----------5---5-|
|---------------------|-----10-----3---3---|
|---------------------|-^-8----0-3---------|


                                           Q=70
  s s s s s s s s   s s s  s  s  s  s  s     H         a
|-----------3---3-|-----0-------15----15-|---------------|
|---------1---1---|----------13----13----|-^12tr13----12-|
|-------0---------|---0---12-------------|-^12-----------|
|-----2-----------|----------------------|-^14-----------|
|-3---------------|-3--------------------|-^15-----------|
|---3-------------|----------------------|---------------|


           H.=H
 4/4
   |--3--|  |-----5-----| |-3-|                    |------6-------|  |----------7----------|
   S  S  S  S  S  S  S  S S S S T T T T T T  T  T  T  T  T  T  T  T  T  T      T  T  T  T  T
|-------------12----------0---------------0-------------15-20-15-22-20-22pb24-22-20-------20--|
|-13-12-15-13----15-13-------------------------13-15-17-----------------------------20s17-----|
|----------------------12---7-5-0-----5-7---12------------------------------------------------|
|-----------------------------------5---------------------------------------------------------|
|---------------------------------7-----------------------------------------------------------|
|---------------------------------------------------------------------------------------------|


 3/4
   |------6-------|  |-----5-----|                              |-3-|
   T  T  T  T  T  T  T  T  T  T  T T  T  T T  T  T T T  T T T T S S S
|----------------------------------0----------------------------------|
|-20-17s15----17-15---------------------------------------------------|
|----------17-------17-------17p12---------9-------0------0-----------|
|----------------------17-14---------12-10---12-10-----10-----0-----0-|
|----------------------------------------------------7------7-----7---|
|---------------------------------------------------------------8-----|


    Q=48
 2/4
            |-3-|
  a Q  a E. T T T   Q  a E T T T T
|-----------------|------------------|
|-----------------|----------4-2-----|
|-5-5--0-0--5-3-5-|-3------5-----5---|
|------2-2--------|----3-3-----------|
|------3-3--------|----1-1-----------|
|-----------------|----3-3-----------|


          |-3-|          |---5---|
  Q  a E. T T T   Q  a E T T T T T   Q  a Q
|---------------|------------------|---------|
|---------------|------------------|---------|
|-5--0-0--5-3-5-|-3------1-0-3-1-0-|-0--0-0--|
|----2-2--------|----3-3-----------|----2-2--|
|----3-3--------|----1-1-----------|----3-3--|
|---------------|----3-3-----------|---------|


                                              ~~
           |---5---|
  a Q  a E T T T T T   Q  a Q    Q   Q    E E E. S
|--------------------|---------|--------|-------------|
|--------------------|---------|--------|-------------|
|-0-0--0-0-1-0-3-1-0-|-0-------|-0------|-------------|
|------1-1-----------|----0-0--|----^3--|-------------|
|------3-3-----------|----3-3--|----^2--|-------------|
|--------------------|----3-3--|----^3--|---3-4--6----|


  H=H
  q   Q     S  S S S  S S S S   e. T T e. S
|--------|--------------------|-------------|
|--------|-----0-----^4---4---|-----------0-|
|----^5--|-(5)---5-7--------7-|-5--5h7-5----|
|----^5--|-----------^3-6-----|--------5----|
|----^6--|--8--------^3-------|--------6----|
|-8------|-----------^4-------|-8-----------|


  Q   E. S   q   Q     S  S S S  S S S S
|----------|--------|--------------------|
|----------|--------|---------6-^8---8-6-|
|-5--^5--7-|-8--^8--|-(8)-7-8------------|
|----^5----|----^5--|-----------^8-8-----|
|----^6----|----^6--|-----------^5-------|
|-8--------|-6--^6--|--6--------^4-------|


  e. T T e. S   Q   E. T T   q   Q     S  S  S S S S S S
|-------------|----^3------|----^8--|-(8)----------------|
|------6------|----^4--3---|----^8--|-(8)----------------|
|-8--8---8--7-|-8--^4------|-5--^8--|-(8)------7-8---8-7-|
|--------5----|------------|--------|-----9-10-----6-----|
|-6------6----|-6--------3-|--------|--8-------5-6---6-5-|
|--------6----|----^3------|----^8--|-----7--8-----4-----|


  Q=75    H.=H                     Q=55
  q    E. S    q   E  E    q  Q      H
|----^-8----|-----11----|-15-----|-^16----|
|----^-8----|-----13----|-16-----|-^15----|
|-5--^-8----|-----------|-17-----|-^16----|
|----^10--9-|-10--13----|-17-----|--------|
|-----------|-----12-11-|--------|--------|
|-8--^-8----|--8--------|-15--3--|-^15----|


  Q=70    H=H
  |-----7-----| |-----7-----|   |-----7-----| |-----7-----|
  S S S S S S S S S S S S S S   S S S S S S S S S S S S S S
|-----------------------------|---------3-6-4---------3-6-4-|
|-----------------------------|-----3-6-----------3-6-------|
|-----------3-------------3---|---4-------------4-----------|
|-------3-5---6-------3-5---6-|-5-------------5-------------|
|---2-5-----------2-5---------|-----------------------------|
|-3-------------3-------------|-----------------------------|


                              Q=90
  H         s s s s s s s s   q   Q
|-3tr4----|-3-3---3-4-5-6-7-|-8--^8---|
|-3-------|-----7-----------|----^9---|
|-4-------|-----------------|----^8---|
|---------|-----------------|-6-------|
|---------|-----------------|---------|
|---------|-----------------|----^8---|


  H.=H
   S   S S S  S  S  S S   e. T T e. S   q    Q
|-(8)----8-9-11-----9-8-|-6--6h8-6--5-|-6--^-8--|
|-(9)-12-----13----11-9-|-8------8--7-|-8--^-8--|
|-----------------------|-------------|---------|
|---------------13------|-------------|----^10--|
|-----------------------|-6-----------|----^10--|
|--8--------------------|--------6----|----^-0--|


                                   Q=70
    q     Q      S  S S  S S  S  S  S
|------------|-------------8-----------|
|---9---^-9--|--(9)-8-9-11-9----11--9--|
|--10---^10--|-(10)-------------12-10--|
|-(10)-------|---------------10--------|
|---8---^-8--|--11---------------------|
|-------^-8--|-------------------------|


  e. T T  e. S   Q.   T T T T   q  a e. S
|--------------|--------------|-----------|
|-8--8-9--8--7-|-8------------|----8p6--5-|
|-8-------8--7-|-8------------|------6--5-|
|--------------|--------------|------6----|
|--------10----|----------5-6-|-8----8----|
|-8------------|--------8-----|-----------|


  Q.   T T T T   q  a e. S    Q..   S
|--------------|-----------|----------|
|-6------------|----4p2--1-|-^2-----1-|
|-6------------|------1----|-^1-------|
|--------------|-5----3--2-|-^3-----1-|
|--------4-6-8-|-----------|----------|
|--------------|-----------|-^1-------|


  H.=H
  q   Q     S  S S S S S S S   e. T T  e. S
|--------|-------------------|--------------|
|-1--^1--|-(1)-0-1-2-4---2-1-|--------------|
|----^1--|-(1)-------5---3-1-|-3--3-5-^3--2-|
|-1--^1--|-------------------|-5------^5--4-|
|--------|--3----------6-----|-6------^6----|
|-4------|-------------------|--------------|


           Q=65
  Q   Q    q  Q     S  S S S S S S S
|--------|-------|-------------------|
|----^1--|-------|-----------1-------|
|-3--^0--|-1--1--|-(1)-0-1-3-1---3-1-|
|-5------|-3--3--|-(3)-----------5-3-|
|----^3--|-3-----|-------------3-----|
|----^0--|-1-----|--4----------------|


                       Q=71
  e. T T E. S   Q.   T T T T   q  a e. S   Q.   T T T T   q   E. S
|-------------|--------------|-----------|--------------|----------|
|-------------|--------------|-----------|--------------|----------|
|-0--0-1-0----|--------------|-----------|--------------|----^1--0-|
|-1------1--4-|-5--------0-1-|----5p3--2-|-3----------3-|----^3--2-|
|-3------3--5-|-6------3-----|------4--3-|-4------4-6---|----^2----|
|-------------|--------------|-1----1----|--------------|-3--^1----|


                           Q=47
                                 |-3-|                        |-3-|
  H      +Q    E T T T T   Q  E. T T T   Q  E T T T T   Q  E. T T T
|------|-----------------|----3--------|----3---------|----3--------|
|------|-----------------|----5--------|----6---------|----5--------|
|-1----|-(1)--^0---------|----5--------|----6---------|----5--------|
|-3----|-(3)--^3---------|-------------|--------1-----|-------------|
|------|------^2-----1-2-|-3-----3-1-3-|-1----3---4-3-|-3-----3-1-3-|
|------|-----------3-----|-------------|--------------|-------------|


  H.=H                        Q=40  Q=120
       |---5---|
  Q  E T T T T T   Q  Q    Q   q     H      +Q   Q
|----3-----------|----3--|----^3--|-^3----|-(3)-----||
|----6-----------|----5--|----^6--|-^5----|-(5)-----||
|----6-----------|----5--|----^4--|-^5----|-(5)-----||
|----------------|-------|--------|-^5----|-(5)-----||
|-1--------1-----|-------|--------|-^3----|-(3)-----||
|------4-3---4-3-|-3-----|-3------|-------|---------||


 Friska
  Q=125
  E.  S E. S   E.  S E. S    E.  S  E. S   E. S  E. S
|------------|------------|--------------|----8-------|
|-8-----8--9-|-8--11-9--8-|------------8-|-9----11--9-|
|------------|------------|-10-----10----|------------|
|----10------|------------|-----10-------|------------|
|------------|------------|--------------|------------|
|------------|------------|--------------|------------|


  E.  S E. S   E.  S E. S    E.  S  E. S    E.  S E.  S
|------------|------------|--------------|---------------|
|-8-----8--9-|-8--11-9--8-|------------8-|--------9------|
|------------|------------|-10-----10----|-10--------10--|
|----10------|------------|-----10-------|-----10--------|
|------------|------------|--------------|---------------|
|------------|------------|--------------|---------------|


  H=H
  E.  S E. S   E.  S E. S    E.  S  E. S   E. S  E. S
|------------|-------8----|--------------|----8--8----|
|-8-----8--9-|-8--11-9--8-|------------8-|-9----11--9-|
|------------|------------|-10-----10----|------------|
|----10------|------------|-----10-------|------------|
|------------|------------|--------------|------------|
|-------8----|------------|---------8----|------------|


  E.  S E. S   E.  S E. S    E.  S  E. S    E.  S E.  S
|------------|-------8----|--------------|--------8------|
|-8-----8--9-|-8--11-9--8-|------------8-|--------9------|
|------------|------------|-10-----10----|-10--------10--|
|----10------|------------|-----10-------|-----10--------|
|------------|------------|--------------|---------------|
|-------8----|------------|---------8----|---------------|


  E.  S E.  S     E.  S  E.  S    E.  S E.  S    E.  S  E.  S
|-------8-----|---------20-----|--------8-----|--------20-----|
|-8---------9-|----------------|--------------|---------------|
|-------------|---------17-----|-10-----------|--------17-----|
|----10----10-|-/17------------|-----10----10-|-18------------|
|-------------|------15-----15-|--------------|-----15-----15-|
|-------8-----|----------------|--------8-----|---------------|


  E.  S E.  S     E.  S  E.  S    E.  S E.  S    E.  S  E.  S
|-------8-----|---------20-----|--------8-----|--------20------|
|-8---------9-|----------------|--------------|----------------|
|-------------|---------17-----|-10-----------|--------17------|
|----10----10-|-/17------------|-----10----10-|-18-------------|
|-------------|------15-----15-|--------------|-----15-----15--|
|-------8-----|----------------|--------8-----|----------------|


  e e e e   e e e e   e e e e   e e e e
|---------|---------|---------|---------|
|---1-1-1-|---1---1-|---1-1---|---1---1-|
|-0-------|-1---0---|-------0-|-1-------|
|-------2-|---------|-3-------|-----3---|
|---3-1---|---3---3-|---3---3-|---3---3-|
|---------|---------|-----4---|---------|


  e e e e   e e e e   e e e e   e e e e
|---------|---------|---------|----------|
|---1-1---|---1---1-|---1-1---|---1---1--|
|-0-----3-|-1---0---|-------0-|-1--------|
|-------2-|---------|-3-------|-----3----|
|---3-1---|---3---3-|---3---3-|---3---3--|
|---------|---------|-----4---|----------|


  e e e e   e e e e   e e e e   e e e e
|-3-------|-4---3---|-1-----3-|-4---1---|
|---1-1-1-|---1---1-|---1-1---|---1---1-|
|-0-------|-1---0---|-------0-|-1-------|
|-------2-|---2-----|-3-------|-----3---|
|---3-1---|-----1-3-|---3---3-|---3---3-|
|---------|---------|-----4---|-----4---|


  e e e e   e e e e   e e e e   e e e e
|-3-----6-|-4---3---|-1-----3-|-4--------|
|---1-1---|---1---1-|---1-1---|---1-6----|
|-0-----3-|-1---0---|-------0-|-1-----5--|
|-------2-|---2-----|-3-------|-----3----|
|---3-1---|-----1-3-|---3---3-|---3---3--|
|---------|---------|-----4---|-----4----|


  |-3--|  |-3--|   |-3--| |-3--|    |-3--| |-3--|   |-3--|  |-3--|
  E  E E  E E  E   E E  E E E  E    E E  E E  E E   E E  E  E E  E
|-8----8----8----|---8------8----|----8----8------|---8-------8----|
|----------------|-9------8------|--------------8-|-9--------------|
|----------------|---------------|-10-------------|--------10------|
|---10---10---10-|-----10-----10-|------10---10---|-----10------10-|
|----------------|---------------|----------------|----------------|
|----------------|---------------|----------------|----------------|


  |-3--| |--3--|   |-3--| |-3--|    |-3--| |-3--|   |-3--|  |-3--|
  E E  E E  E  E   E E  E E E  E    E E  E E  E E   E E  E  E E  E
|---8----8-------|---8------8----|----8----8------|---8-------8-------|
|-8-----------11-|-9------8------|--------------8-|-9-----------------|
|----------------|---------------|-10-------------|--------10---------|
|-----10---10----|-----10-----10-|------10---10---|-----10------10----|
|----------------|---------------|----------------|-------------------|
|----------------|---------------|----------------|-------------------|


  |--3--|   |--3--|   |-3--|  |-3--|   |--3--|   |--3--|
  E  E  E   E  E  E   E  E E  E E  E   E  E  E   E  E  E
|-8-----------20----|-8----8----8----|-8-----------20----|
|------13-----------|----------------|------13-----------|
|-0-------/17----17-|----------------|---------/17----17-|
|---10--------------|---10---10---10-|---10--------------|
|-------------------|----------------|-8-----------------|
|-------------------|-8--------------|-------------------|
  H                   H                H
  |                   |                |


  |-3--|  |-3--|   |--3--| |--3--|   |-3--|  |-3--|   |-3--| |--3--|
  E  E E  E E  E   E  E  E E  E  E   E  E E  E E  E   E  E E E  E  E
|-8----8----8----|-8-------8-20----|-8----8----8----|-8----8-8-20-----|
|----------------|------13---------|----------------|-----------------|
|----------------|-0------------17-|-0--------------|-------------17--|
|---10---10---10-|---10------------|---10---10---10-|---10------------|
|----------------|-----------------|----------------|-8---------------|
|-8--------------|---------8-------|---------8------|--------8--------|
  H                Q       Q         Q       Q        Q      Q
  |                |       |         |       |        |      |


  |-3--|  |-3--|   |-3--| |--3--|    |-3--| |--3--|
  E  E E  E E  E   E  E E E  E  E    E  E E E  E  E
|-8----8----8----|-8----8-8-20----|-------8-8-20----|
|----------------|----------------|-13--------------|
|----------------|-0-----------17-|--0-----------17-|
|---10---10---10-|---10-----------|----10-----------|
|-8--------------|----------------|-----------------|
|---------8------|--------8-------|---------8-------|
  Q       Q        Q      Q          Q      Q
  |       |        |      |          |      |


  Q=170
   |-3--| |--3--|    |-3--| |--3--|
   E  E E E  E  E    E  E E E  E  E
|-------8-8-20----|-------8-8-20----|
|-13--------------|-13--------------|
|--------------17-|--------------17-|
|----10-----------|----10-----------|
|-----------------|-----------------|
|-13------8-------|-13------8-------|
   Q      Q          Q      Q
   |      |          |      |


  Q=75       H=H
   e  e   E.  S    e  e  E.  S    e  e  E.  S
|---------------|--------------|--------------|
|-12-13------13-|-12-13-----13-|-12-13-----13-|
|----12-^15-----|----12-15-----|-13-14-14-----|
|-14----^14-----|-14----14-----|-------15-----|
|-------^15-----|-------15-----|-------15-----|
|-15------------|-15-----------|-15-----------|


   e  e  E.  S    e  e  E.  S    e  e  E.  S
|--------------|--------------|--------------|
|-12-13-----13-|-12-13-15--13-|-12-13-15--13-|
|-13-14-14-----|----12-15-----|----12-15-----|
|-15----15-----|-14----14-----|-14----14-----|
|-------15-----|-------15-----|-------15-----|
|--------------|-13-----------|-13-----------|


   e  e  E.  S    e  e  E.  S    e  e  E.  S
|-------13-----|-------13-----|--------------|
|-12-13-----13-|-12-13-----13-|-12-13-----13-|
|-13-14-14-----|-13-14-14-----|----12-15-----|
|-------15-----|-------15-----|-14----14-----|
|-------15-----|-------15-----|-------15-----|
|-13-----------|-13-----------|-15-----------|


                                   Q=135
   e  e  E.  S    e  e  E.  S    e  e  E.  S
|--------------|--------------|--------------|
|-12-13-----13-|-12-13-----13-|-12-13-----13-|
|----12-15-----|-13-14-14-----|-13-14-14-----|
|-14----14-----|-------15-----|-15----15-----|
|-------15-----|-------15-----|-------15-----|
|-15-----------|-15-----------|--------------|


   e  e  E.  S    e  e  E.  S    e  e  E.  S
|--------------|--------------|-------13-----|
|-12-13-15--13-|-12-13-15--13-|-12-13-----13-|
|----12-15-----|----12-15-----|-13-14-14-----|
|-14----14-----|-14----14-----|-------15-----|
|-------15-----|-------15-----|-------15-----|
|-13-----------|-13-----------|-13-----------|


                 H=H
   e  e  E.  S    e  e  e  e    e  e  e  e
|-------13-----|-10----------|-------10-13-|
|-12-13-----13-|-11-11-------|----11-11-15-|
|-13-14-14-----|----10-10----|-10-10-------|
|-------15-----|-12----12-12-|-12----------|
|-------15-----|----------13-|-------------|
|-13-----------|-------------|-------------|


   e  e  e  e    e  e  Q      e  e  e  e
|--8----------|--------8--|-^10----------|
|-10-10-------|----10-10--|-^11-11-------|
|----10-10----|-10-10-10--|-^10-10-10----|
|-10----10-10-|-10----10--|-^12----12-12-|
|----------12-|-----------|-----------13-|
|-------------|-----------|--------------|


   e  e  e  e    e  e  e  e    e  e  Q
|-------10-13-|--8----------|--------8--|
|----11-11-15-|-10-10-------|----10-10--|
|-10-10-------|----10-10----|-10-10-10--|
|-12----------|-10----10-10-|-10----10--|
|-------------|----------12-|-----------|
|-------------|-------------|-----------|


  Q=145
   S  S  S  S  S  S  S  S    s  S  s  S  S  S  S  S
|-------------------------|-------------------------|
|-12----13----11----13----|-12----13----11----13----|
|-------------------------|-------------------------|
|----10----10----10----10-|----10----10----10----10-|
|-------------------------|-------------------------|
|-------------------------|-------------------------|


   s  S  s  S  S  S  S  S    s  S  s  S  S  S  S  S
|-------------------------|-------------------------|
|-12----13----10----13----|-12----13----10----13----|
|-------------------------|-------------------------|
|----10----10----10----10-|----10----10----10----10-|
|-------------------------|-------------------------|
|-------------------------|-------------------------|


   s S  s S  S S  S S    s S  s S  S S  S S
|-----------10--------|-----------10--------|
|-12---13--------13---|-12---13--------13---|
|----9----9----9----9-|----9----9----9----9-|
|---------------------|---------------------|
|---------------------|---------------------|
|---------------------|---------------------|


   s  S  s  S  S  S  S  S    s  S  s  S  S  S  S  S
|-------------13----------|-------------13----------|
|-12----13----------13----|-12----13----------13----|
|----10----10----10----10-|----10----10----10----10-|
|-------------------------|-------------------------|
|-------------------------|-------------------------|
|-------------------------|-------------------------|


   S  S  S  S  S  S  S  S    S  S  S  S  S  S  S  S
|-10----------------------|-10----------13----------|
|-------11----10----11----|-------11----------11----|
|----10----10----10----10-|----10----10----10----10-|
|-------------------------|-------------------------|
|-------------------------|-------------------------|
|-------------------------|-------------------------|


   S  S  S  S  S  S  S  S    S  S  S  S  S  S  S  S
|-------------------------|-------------13----------|
|-13----10----------10----|-13----10----------13----|
|----10----10-13-10----10-|----10----10----10----10-|
|-------------------------|-------------------------|
|-------------------------|-------------------------|
|-------------------------|-------------------------|


   S  S  S  S  S  S  S  S    S  S  S  S  S  S  S  S
|-10----------------------|-10----------13----10----|
|-------11----10----11----|-------11----------------|
|----10----10----10----10-|----10----10----10----10-|
|-------------------------|-------------------------|
|-------------------------|-------------------------|
|-------------------------|-------------------------|


   S  S  S  S  S  S  S  S    S  S  S  S  E E
|-------------------------|-------------13---|
|-13----10----------10----|-13----10---------|
|----10----10-13-10----10-|----10----10------|
|-------------------------|------------------|
|-------------------------|------------------|
|-------------------------|------------------|


   s S  s S  s S  s S    s S s S  s S  s S
|----8----8----8----8-|----8---8----8----8-|
|-11---11---11---11---|-11---8---11---11---|
|---------------------|----------------0---|
|---------------------|------7-------------|
|-----------------7---|--------------------|
|-------8-------------|--------------------|
   E    e    E    e      E   e    E    e


   s S  s S  s S  s S    s S  s S  s S  s S
|----8----8----8----8-|----8----8----8----8-|
|-10---10---10---10---|-10---10---10---10---|
|---------------------|---------------------|
|---------------------|-------0-------------|
|-------8----7--------|---------------------|
|----------------11---|------------9----8---|
   E    e    e    e      E    e    e    e


   s S  s S  s S  s S    s S s S  s S  s S
|----8----8----8----8-|----8---8----8----8-|
|-11---11---11---11---|-11---8---11---11---|
|---------------------|----------------0---|
|---------------------|------7-------------|
|-----------------7---|--------------------|
|-------8-------------|--------------------|
   E    e    E    e      E   e    E    e


   s S  s S  s S  s S    s S  s S  s S  s S
|----8----8----8----8-|----8----8----8----8-|
|-10---10---10---10---|-10---10---10---10---|
|---------------------|---------------------|
|---------------------|-------0-------------|
|-------8----7--------|---------------------|
|----------------11---|------------9----8---|
   E    e    e    e      E    e    e    e


   S S S S  S S S S    S S S S  Q     S S  S S  S S  S S    S S  S S  Q
|----8---8----8---8-|----8---8-----|----8----8----8----8-|----8----8-----|
|------8--------8---|------8-------|------10--------10---|------10-------|
|--9--------9-------|--9--------9--|-10--------10--------|-10--------10--|
|-10-------10-------|-10-------10--|-10--------10--------|-10--------10--|
|-------------------|--------------|---------------------|---------------|
|-------------------|--------------|---------------------|---------------|


   S S S S  S S S S    S S S S  Q     S S  S S  S S  S S    S S  S S  Q
|----8---8----8---8-|----8---8-----|----8----8----8----8-|----8----8-----|
|------8--------8---|------8-------|------10--------10---|------10-------|
|--9--------9-------|--9--------9--|-10--------10--------|-10--------10--|
|-10-------10-------|-10-------10--|-10--------10--------|-10--------10--|
|-------------------|--------------|---------------------|---------------|
|-------------------|--------------|---------------------|---------------|


   a  q   Q     +E   e  e  e    a  q   Q     +E   e  e  e
|------------|---------------|------------|---------------|
|-11h15------|------10-11----|-10h13------|---------10----|
|--------12--|-(12)-------12-|--------10--|-(10)-12----10-|
|------------|---------------|------------|---------------|
|------------|---------------|------------|---------------|
|------------|---------------|------------|---------------|


                                                               |--3--|
   e  e  e  e    e  e  e  s  T  T    E  e  e  e    e  e  e  s  T  T  T
|-------------|-------------13h15p|=13-------15-|-17----17----------18--|
|-------------|-------15-17-------|----17-18----|----20----18----20-----|
|----------14-|-15-17-------------|-------------|-------------21--------|
|-14-15-17----|-------------------|-------------|-----------------------|
|-------------|-------------------|-------------|-----------------------|
|-------------|-------------------|-------------|-----------------------|


                           |--3--|
   q   Q     +E   e  e  s  T  T  T    q   Q
|-22------|---------------------17-|-20------|
|---------|------------------18----|---------|
|---------|---------15----17-------|---------|
|-----17--|-(17)-19----17----------|-----15--|
|---------|------------------------|---------|
|---------|------------------------|---------|


   +E   e  e  e    e  e  e  e    e  e  e  s  T  T
|---------------|-------------|-------------13h15--|
|---------------|-------------|-------15-17--------|
|---------14----|----------14-|-15-17--------------|
|-(15)-17----15-|-14-15-17----|--------------------|
|---------------|-------------|--------------------|
|---------------|-------------|--------------------|


   e  e  e  e    e  e  e  s  T  T    e E  Q
|-13----13-15-|-17-15-17-13----17-|-25-------|
|----17-------|-------------20----|----------|
|-------------|-------------------|----------|
|-------------|-------------------|------12--|
|-------------|-------------------|----------|
|-------------|-------------------|------13--|


              |--3--|
  E  e  e  s  T  T  T    e E  Q     +E   e  e  e
|------------------20-|-24-------|----------------|
|---------------20----|----------|----------------|
|------------21-------|----------|----------------|
|-0-14-15-------------|----------|------12-14-----|
|---------17----------|------15--|-(15)-------15--|
|---------------------|------12--|----------------|


   e  e  e  e    e  e  e  e    e  e  e  e
|-------------|-------------|-------------|
|-------------|----------12-|-13-12-13-15-|
|-------------|-10-12-14----|-------------|
|-------12-14-|-------12-12-|-14-12-14-15-|
|-14-15----10-|-12-14-------|-------------|
|-10-12-13----|-------------|-------------|


                                             |--3--|
   e  e  e  s  T  T    e E  Q    E  e  e  s  T  T  T
|----------------17-|-25-------|------------------20--|
|-17----17----20----|----------|---------------20-----|
|----19----17-------|----------|------------21--------|
|-17----17----------|------12--|-0-14-15--------------|
|-------------------|----------|---------17-----------|
|-------------------|------13--|----------------------|


   e E  Q     +E   e  e  e    e  e  e  e    e  e  e  e
|-24-------|---------------|-------------|-------------|
|----------|---------------|-------------|----------12-|
|----------|---------------|-------------|-10-12-14----|
|----------|------12-14----|-------12-14-|-------12-12-|
|------15--|-(15)-------15-|-14-15----10-|-12-14-------|
|------12--|---------------|-10-12-13----|-------------|


   e  e  e  e    e  E  e  E    E  E  E  E
|-------------|-------------|--------------|
|-13-12-14-13-|-15-14-16-15-|-17-16-18-17--|
|-------------|-------------|--------------|
|-14----------|-------------|-14-13-15-14--|
|----14-16-15-|-17-16-18-17-|--------------|
|-------------|-------------|--------------|


   E  E  E  E    E  E  E  E    E  E  E  E
|-14-13-15-14-|-16-15-17-16-|-18-17-18-19-|
|-------------|-------------|-------------|
|-------------|-------14-13-|-15-14-15-16-|
|-16-15-17-16-|-18-17-------|-------------|
|-------------|-------------|-------------|
|-------------|-------------|-------------|


   E  E  E  E    E  E  E  E    E  E  E  E    E E  E E
|-20-19-20-19-|-20-19-20-19-|-20----------|------------|
|-17----17----|-17----17----|-17----------|----0----0--|
|-17-16-17-16-|-17-16-17-16-|-17-16-17-16-|-17---------|
|-------------|-------------|-------------|------10----|
|-------------|-------------|----14-15-14-|-15---------|
|-------------|-------------|-------------|----7--8-7--|


  E e E e   E e e e   e e e e   e e e e   E e E e   E e e e   e e e e
|---------|---------|---------|---------|---------|---------|----------|
|---1---1-|---1-1-1-|---1---1-|---1---1-|---1---1-|---1-1-1-|---1---1--|
|---3---3-|-2-----0-|---2---2-|---2---2-|---3---3-|-2-----0-|---2---2--|
|---2-2---|---------|-3-2-1-0-|---------|---2-2---|---------|-3-2-0----|
|-3-------|---------|---------|-4-3-2-3-|-3-------|---------|-------3--|
|---------|---------|---------|---------|---------|---------|----------|


  q  q     E  e  E  e    E  E  E  E    e  e  e  e
|-------|-------------|----17----15-|-13----------|
|-1-----|----13----17-|----17----17-|----17-16-15-|
|-2--5--|----15----15-|----15----15-|-14-14-14-14-|
|----7--|----14----14-|-------------|-15-15-15-15-|
|----0--|-15----------|-15----------|-------------|
|-1-----|-------15----|-------15----|-------------|


   e  e  e  e    E  e  E  e    E  E  E  E
|-------------|-------------|----17----15--|
|-14-13-12-13-|----13----17-|----17----17--|
|-14-14-14-14-|----15----15-|----15----15--|
|-15-15-15-15-|----14----14-|--------------|
|-------------|-15----------|-15-----------|
|-------------|-------15----|-------15-----|


   e  e  e  e    e  e  e  e   S S  S S S S  S S
|-13----------|-------------|---8----8---8----8-|
|----17-16-15-|-14-13-12-13-|------8--------8---|
|-14-14-14-14-|-14-14-14-14-|-9--------9--------|
|-15-15-15-15-|-15-15-15-15-|-8---10---8---10---|
|-------------|-------------|-------------------|
|-------------|-------------|-------------------|


  S S  S S  Q     S S  S S  S S  S S    S S  S S  Q
|---8----8-----|----8----8----8----8-|----8----8-----|
|------8-------|------10--------10---|------10-------|
|-9---------9--|-10--------10--------|-10--------10--|
|-8---10---10--|--7---10----7---10---|--7---10---10--|
|-----------7--|---------------------|------------8--|
|--------------|---------------------|---------------|


  S S  S S S S  S S   S S  S S  Q     S S  S S  S S  S S    S S  S S  Q
|---8----8---8----8-|---8----8-----|----8----8----8----8-|----8----8-----|
|------8--------8---|------8-------|------10--------10---|------10-------|
|-9--------9--------|-9---------9--|-10--------10--------|-10--------10--|
|-8---10---8---10---|-8---10---10--|--7---10----7---10---|--7---10---10--|
|-------------------|-----------7--|---------------------|------------8--|
|-------------------|--------------|---------------------|---------------|


  H=H
   S S S S  S S S S    S S S S  S S  S S
|----8---8----8---8-|----8---8----8----8-|
|-------------------|--------------------|
|-------------------|----------10--------|
|-12---8--------8---|-12---8--------12---|
|----------12-------|--------------------|
|-------------------|--------------------|


   S S  S S  S S  S S    S S  S S  S S  S S
|----8----8----8----8-|----8----8----8----8-|
|---------------------|---------------------|
|---------------------|-----------10--------|
|-10------------------|-10-------------10---|
|------12---11---12---|------12-------------|
|---------------------|---------------------|


   S S S S  S S S S    S S S S  S S  S S    S S  S S  S S  S S
|----8---8----8---8-|----8---8----8----8-|----8----8----8----8-|
|-------------------|--------------------|---------------------|
|-------------------|----------10--------|---------------------|
|-12---8--------8---|-12---8--------12---|-10------------------|
|----------12-------|--------------------|------12---11---12---|
|-------------------|--------------------|---------------------|


               Q=155
   S S  S S  S S E   e e e e   a e e e e
|----8----8----8---|---------|-------------|
|------------------|---------|-------------|
|-----------10-----|---------|-------------|
|-10---------------|-------3-|-7p5-4-5-----|
|------12----------|-3-5-7---|---------7---|
|------------------|---------|-------------|


  e e e e   a e e e e   e e e e   e e e e   e e e e   e e e e   e e e e
|---------|-----------|---6---6-|---6---6-|---5---5-|---5---5-|---------|
|---------|-----------|---5---5-|---5---5-|---6---6-|---6---6-|-------6-|
|-------3-|-7p5-4-5---|-3-7---3-|---------|---------|---------|-5-7-9---|
|-3-5-7---|---------7-|-----5---|---5-----|-3-7---3-|---------|---------|
|---------|-----------|---------|-7---3-7-|-----3---|---3-----|-3-5-7-8-|
|---------|-----------|---------|---------|---------|-5---1---|---------|


   a  e e  e e   e  e  e e    a  e e  e  e
|--------------|---------6-|-10p=8-7--8----|
|-10p=8-7--8---|-6--8-10---|------------10-|
|------------9-|-----------|---------------|
|--------------|---------8-|----10-9-10--7-|
|----10-9-10-7-|-8-10-12---|---------------|
|--------------|-----------|---------------|


   E a  E  E  a  E   E a E  E a E    E a  E  E a  E
|----9h10----------|--------------|-------------------|
|-11---------10h11-|---7h8--------|----9h10-----------|
|---------12-------|-9--------8h9-|-10---------9h10---|
|------------------|-------10-----|---------10--------|
|------------------|--------------|-------------------|
|------------------|--------------|-------------------|


   E a  E  E E   e e e  e   a e  e e e    e e e  e
|--------------|----------|------------|-----------|
|--------------|----------|------------|-----------|
|--------------|-0--------|-9p7----7---|----7-9-10-|
|----9h10------|---7-9-10-|-----11---9-|-10--------|
|-12-----------|----------|------------|-----------|
|---------13---|----------|------------|-----------|


   a e  e  e  e    E  e  E  e    e  e  e  e
|---------------|----13----13-|----13----13---|
|-10p8----------|----12----12-|----12----12---|
|------11-12----|----14-------|---------------|
|------------14-|-15----12-15-|----12---------|
|---------------|-------------|-14-------14---|
|---------------|-------------|-------15------|


   e  e  e  e    e  e e  E   e  e  e  e    e  e  e  e
|----12----12-|----12------|------------|-------------|
|----13----13-|----13------|-8-10-12-13-|-15-14-15----|
|-------------|----------9-|------------|----------16-|
|----14-------|---------10-|-9-10-12-14-|-15----15----|
|-15-------15-|------------|------------|-------------|
|-------15----|-12-15-8----|------------|-------------|


   e  e  e  e    e  e  e  e    e  a  e  e  a  e
|----------13-|-15-14-15-12-|----16h17----12h13-|
|-13-15-17-15-|-17-16-17-13-|-18-------15-------|
|-------17----|-------------|-------------------|
|-14-17-------|-------------|-------------------|
|-------------|-------------|-------------------|
|-------------|-------------|-------------------|


   E  a  E  E  a  E    E  a  E  E  a  E   E  a  E  E E
|-------------------|----11h12----------|--------------|
|----14h15----11h12-|-13----------12h13-|--------------|
|-16-------12-------|----------12-------|-9-11h12------|
|-------------------|-------------------|---------10---|
|-------------------|-------------------|--------------|
|-------------------|-------------------|--------------|


  e  e  e  e    e  e  e  e    e  e  e  e
|------------|-------------|----------13--|
|-8-10-12-13-|-15-14-15----|-13-15-17-15--|
|------------|----------16-|-------17-----|
|-9-10-12-14-|-15----15----|-14-17--------|
|------------|-------------|--------------|
|------------|-------------|--------------|


   e  e  e  e    e  a  e  e  a  e    E  a  E  E  a  E
|-15-14-15-12-|----16h17----12h13-|-------------------|
|-17-16-17-13-|-18-------15-------|----14h15----11h12-|
|-------------|-------------------|-16-------12-------|
|-------------|-------------------|-------------------|
|-------------|-------------------|-------------------|
|-------------|-------------------|-------------------|


   E  E  E  E    E  E  E  E    E  E  E  E
|-------------|-------------|-------------|
|-13-14-15-16-|-17-16-15-14-|-15-16-17-18-|
|-------------|-------------|-------------|
|-------------|-------------|-------------|
|-15-14-13-12-|-11-12-13-14-|-13-12-------|
|-------------|-------------|-------16-15-|
   E  E  E  E    E  E  E  E    E  E  E  E


   E  E  E  E    E  E  E  E    E  E  E  E    E  E  E  E
|-------------|----------15-|-16-15-------|----15-16-17-|
|-19-18-17-16-|-17-18-19----|-------19-18-|-19----------|
|-------------|-------------|-------------|-------------|
|-------------|-------------|-------------|-16-15-14-13-|
|----------12-|-------------|-------------|-------------|
|-14-15-16----|-16-15-14-13-|-12-13-14-15-|-------------|
   E  E  E  E    E  E  E  E    E  E  E  E    E  E  E  E


   E  E  E  E    E  E  E  E    E  E  E  E
|-18-19-20-21-|-22-21-22-21-|-22-21-20-19--|
|-------------|-------------|--------------|
|-19-18-17-16-|-15-16-15-16-|-15-16-17-18--|
|-------------|-------------|--------------|
|-------------|-------------|--------------|
|-------------|-------------|--------------|
   E  E  E  E    E  E  E  E    E  E  E  E


   E  E  E  E    E  E  E  E    E  E  E  E    E  E  E  E
|-18-17-16-17-|-18-19-20-21-|-22-21-22-21-|-22-21-20-19-|
|----16-17-16-|-------------|-------------|-------------|
|-19----------|-19-18-17-16-|-15-16-15-16-|-15-16-17-18-|
|-------------|-------------|-------------|-------------|
|-------------|-------------|-------------|-------------|
|-------------|-------------|-------------|-------------|
   E  E  E  E    E  E  E  E    E  E  E  E    E  E  E  E


                                          Q=155
   E  E  E  E    E  E  E  E    E  E E E   E e E e
|-20-19-20-19-|-20----------|-----------|---------|
|-------------|----12-13-12-|-13--------|---4---4-|
|-17-16-17-16-|-17----------|-------6-7-|---6---6-|
|-------------|-------------|----10---0-|---5-5---|
|-------------|----14-15-14-|-15----4---|-6-------|
|-------------|-------------|-----8-----|---------|
   E  E  E  E    E  E  E  E    E  E E E


  E e e e   E e E e   E e E e   E e E e   E e e e   E E E E   Q  Q
|---------|---------|---------|---------|---------|---------|--------|
|---4-4-4-|---4---4-|---4---4-|---4---4-|---4-4-4-|---4---4-|-4--4---|
|-5-----6-|---5---5-|---5---5-|---6---6-|-5-----6-|---5---5-|-5--5---|
|-------3-|-6-5-4-3-|---------|---5-5---|-------3-|-6-5-3---|-6------|
|---------|---------|-7-6-5-6-|-6-------|---------|-------6-|----3---|
|---------|---------|---------|---------|---------|---------|--------|


   E  E  E  E    E  E  E  E    e  e  e  e
|----11----15-|----20----18-|-16-15-14-13-|
|----14----14-|----20----20-|-13-13-13-13-|
|----12-15-12-|----18-18-18-|-13-13-13-13-|
|-------------|-------------|-------------|
|-------------|-------------|-------------|
|-11----------|-11----------|-------------|


   e  e  e  e    E  e  E  e    E  E  E  E
|-12-11-10-11-|----11----15-|----20----18-|
|-13-13-13-13-|----14----14-|----20----20-|
|-13-13-13-13-|----12-15-12-|----18-18-18-|
|-------------|-------------|-------------|
|-------------|-------------|-------------|
|-------------|-11----------|-11----------|


   E  E  E  E    E  E  E  S  S    E S  S  e S  S
|-16-15-14-13-|-12-11-10-11----|-25------21------|
|-13-13-13-13-|-13-13-13-13-20-|-----------------|
|-13-13-13-13-|-13-13-13-13----|------18------15-|
|-------------|----------------|-----------------|
|-------------|----------------|-----------------|
|-------------|----------------|-----------------|


   e S  S  e E    S  S  S  S  S  S  S  S    S  S  S  S  E  e
|-18------15---|-------------------------|-------14S15-16----|
|--------------|----------------14-15-16-|-17-18----------15-|
|------12------|-13S14-15-16-17----------|----------------17-|
|--------------|-------------------------|-------------------|
|--------------|-------------------------|-------------------|
|--------------|-------------------------|-------------------|


   E S  S  e S  S    e S  S  e E
|-25------21------|-18------15---|
|-----------------|--------------|
|------18------15-|------12------|
|-----------------|--------------|
|-----------------|--------------|
|-----------------|--------------|


   S  S  S  S  S  S  S  S    S  S  S  S  e S  S
|-------------------------|-------14S15-16------|
|----------------14-15-16-|-17-18---------------|
|-13S14-15-16-17----------|-------------17---19-|
|-------------------------|---------------------|
|-------------------------|---------------------|
|-------------------------|---------------------|


   E S  S  E S  S    E S  S  E E
|-22------18------|-15-----------|
|-----------------|---------17---|
|------16------12-|--------------|
|-----------------|------14------|
|-----------------|--------------|
|-----------------|--------------|


                             |--3--|  |--3--|
   S  S  S  S  S  S  S  S    S  S  S  S  S  S  E  e
|-------------------------|----17-18-20-22-24-25-20-|
|-------------------17-18-|-20-------------------22-|
|----------15-17-19-------|-------------------------|
|-15-17-19----------------|-------------------------|
|-------------------------|-------------------------|
|-------------------------|-------------------------|


   E S  S  E S  S    E S  S  E E
|-22------18------|-15-----------|
|-----------------|---------17---|
|------16------12-|--------------|
|-----------------|------14------|
|-----------------|--------------|
|-----------------|--------------|


                             |--3--|  |--3--|
   S  S  S  S  S  S  S  S    S  S  S  S  S  S  e E
|-------------------------|----17-18-20-22-24-25---|
|-------------------17-18-|-20---------------------|
|----------15-17-19-------|------------------------|
|-15-17-19----------------|------------------------|
|-------------------------|------------------------|
|-------------------------|------------------------|


   S  S  S  S  S  S  S  S    S  S  S  S  S  S  S  S
|----20-19-20-22-20-19-20-|----20-19-20-22-20-19-20-|
|-17----------------------|-17----------------------|
|-------------------------|-------------------------|
|-------------------------|-------------------------|
|-------------------------|-------------------------|
|-------------------------|-------------------------|


   S  S  S  S  S  S  S  S    S  S  S  S  S  S  S  S
|----20-19-20-22-20-19-20-|----20-19-20-22-20-19-20-|
|-18----------------------|-18----------------------|
|-------------------------|-------------------------|
|-------------------------|-------------------------|
|-------------------------|-------------------------|
|-------------------------|-------------------------|


   S  S  S  S  S  S  S  S    S  S  S  S  S  S  S  S
|----20-19-20-22-20-19-20-|----20-19-20-22-20-19-20-|
|-17----------------------|-17----------------------|
|-------------------------|-------------------------|
|-------------------------|-------------------------|
|-------------------------|-------------------------|
|-------------------------|-------------------------|


   S  S  S  S  S  S  S  S    S  S  S  S  S  S  S  S
|----20-19-20-22-20-19-20-|----20-19-20-22-20-19-20-|
|-18----------------------|-18----------------------|
|-------------------------|-------------------------|
|-------------------------|-------------------------|
|-------------------------|-------------------------|
|-------------------------|-------------------------|


   S  S  S  S  S  S  S  S    S  S  S  S  S  S  S  S
|----20-19-20-22-20-19-20-|----20-19-20-22-20-19-20-|
|-17----------------------|-17----------------------|
|-------------------------|-------------------------|
|-------------------------|-------------------------|
|-------------------------|-------------------------|
|-------------------------|-------------------------|


   S  S  S  S  S  S  S  S    S  S  S  S  S  S  S  S
|----20-19-20-22-20-19-20-|----20-19-20-22-20-19-20-|
|-17----------------------|-17----------------------|
|-------------------------|-------------------------|
|-------------------------|-------------------------|
|-------------------------|-------------------------|
|-------------------------|-------------------------|


   S  S  S  S  S  S  S  S    S  S  S  S  S  S  S  S
|----20-19-20-22-20-19-20-|----20-19-20-22-20-19-20-|
|-17----------------------|-17----------------------|
|-------------------------|-------------------------|
|-------------------------|-------------------------|
|-------------------------|-------------------------|
|-------------------------|-------------------------|


   S  S  S  S  S  S  S  S    S  S  S  S  S  S  S  S
|----20-19-20-22-20-19-20-|----20-19-20-22-20-19-20-|
|-17----------------------|-17----------------------|
|-------------------------|-------------------------|
|-------------------------|-------------------------|
|-------------------------|-------------------------|
|-------------------------|-------------------------|


   E E  Q     e.  S  e.  S    e.  S  e.  T  X  X
|-25-------|---------------|---------------------|
|----------|------------14-|-13------------------|
|----------|-12--13-15-----|---------------10h12-|
|------15--|---------------|--------12--14-------|
|----------|--------15-----|-----15-15-----------|
|----------|-15------------|-15------------------|


   e.  S  e.  S    Q   Q     e.  S  e.  S
|---------------|---------|---------------|
|---------------|---------|------------14-|
|------------12-|-13------|-12--13-15-----|
|-15--14-15-----|-15------|---------------|
|--------15-----|-----15--|--------15-----|
|-13------------|---------|-15------------|


   e.  S  e.  T  X  X    e.  S  e.  T  X  X    e E  Q     e.  S  e.  S    H
|---------------------|---------------------|----------|---------------|-------|
|-13------------------|---------------------|----------|------------14-|-13----|
|---------------10h12-|------------12-10h12-|-13---13--|-12--13-15-----|-------|
|--------12--14-------|-15--14-15-----------|----------|---------------|-------|
|-----15-15-----------|--------15-----------|------15--|--------15-----|-------|
|-15------------------|-13------------------|-13-------|-15------------|-------|


 Cadenza
  Q=150
  S S S S S S S S    S  S S S  S  S S S
|-----------0-----|-------------------0-|
|-----------------|-----8---7-----8-----|
|---5---7-------6-|---------------------|
|-----------------|----10--------10-----|
|-3---5---7---8---|-10----9---10----7---|
|-----------------|---------------------|


  S S S S S  S S  S    S  S S  S  S  S S  S
|-------------------|-----------------------|
|---6---8---10---11-|----13---12----13---10-|
|-----0-------------|----10---------10------|
|---------7----8----|-10----9----10----7----|
|-8-----------------|-----------------------|
|-------------------|-----------------------|


  S  S S  S S S S  S   S S S S S S S S   S S S S S S S S   S S S S S S S S
|--------10----------|---0---3-------0-|-------5---------|-----------------|
|---10--------8---11-|-----------1-----|---6-----------6-|-------1---------|
|------7----0--------|-----0-----------|-----2-----5-----|---2-----------2-|
|-8-------------8----|-------------2---|-3-----------3---|-----------3-----|
|--------------------|-7-------3-------|---------3-------|-0---3-------0---|
|--------------------|-----------------|-----------------|---------1-------|


  S S S S S S S S    S  S S S  S  S S S
|-----------0-----|-------------------0-|
|-----------------|-----8---7-----8-----|
|---5---7-------6-|---------------------|
|-----------------|----10--------10-----|
|-3---5---7---8---|-10----9---10----7---|
|-----------------|---------------------|


  S S S S S  S S  S    S  S S  S  S  S S  S
|-------------------|-----------------------|
|---6---8---10---11-|----13---12----13---10-|
|-----0-------------|----10---------10------|
|---------7----8----|-10----9----10----7----|
|-8-----------------|-----------------------|
|-------------------|-----------------------|


   S  S  S  S  S  S  S  S    S  S  S  S  S  S  S  S
|-------------------------|----15----14----15-------|
|----13----15----17----18-|----------------------17-|
|-------------------------|-12----11----12----------|
|-10----12----14----15----|-------------------14----|
|-------------------------|-------------------------|
|-------------------------|-------------------------|


   S  S  S  S  S  S  S  S    S  S  S  S  S  S  S  S
|----------15----17----18-|----20----19----20----17-|
|----18-------------------|-------------------------|
|-------12----14----15----|-17----16----17----14----|
|-15----------------------|-------------------------|
|-------------------------|-------------------------|
|-------------------------|-------------------------|


   S  S  S  S  S  S  S  S    S  S  S  S  S  S S  S
|----18----22----------18-|----------15---------12-|
|----------------20-------|----17----------13------|
|-15----19----------15----|-------12----------9----|
|-------------17----------|-14----------10---------|
|-------------------------|------------------------|
|-------------------------|------------------------|


  S  S S S S S S S   S S S S S S S S
|--------8-------8-|-----------------|
|---10-------6-----|---3---6-------3-|
|------5-------5---|-----------3-----|
|-7--------3-------|-0---3-------0---|
|------------------|---------1-------|
|------------------|-----------------|


                              H.=H                  Q=120 Q=75
  S S S S S S S S   S S S S S S S S   S S S S S S S S   e E Q
|---3---6-------3-|-----------------|-----------------|--------|
|-----------5-----|-------5---------|-----------------|--------|
|-0---3-------0---|---5-------2---5-|-------2---------|--------|
|---------2-------|-----2-----------|---3-------0---3-|--------|
|-----------------|-3-------0---3---|-----0-----------|-1------|
|-----------------|-----------------|-1-------2---1---|--------|


  Q=40 H=H                         Q=150
  a Q  a Q    a H      E E   E E   E E Q
|------0-0--|-1-1----|-1---^13---|--------*|
|-3-3-------|-1-1----|-1---^13---|--------*|
|-3-3--3-3--|-2-2----|-2---^14---|--------*|
|------5-5--|-3-3----|-3---^15---|-3------*|
|-5-5--3-3--|-3-3----|-3---^15---|--------*|
|-----------|--------|-----------|-1------*|


Duration Legend
---------------
W - whole; H - half; Q - quarter; E - 8th; S - 16th; T - 32nd; X - 64th; a - acciaccatura
+ - note tied to previous; . - note dotted; .. - note double dotted
Uncapitalized letters represent notes that are staccato (1/2 duration)
Irregular groupings are notated above the duration line
Duration letters will always appear directly above the note/fret number it represents the
duration for.  Duration letters with no fret number below them represent rests.  Multi-
bar rests are notated in the form Wxn, where n is the number of bars to rest for.  Low
melody durations appear below the staff

Tablature Legend
----------------
 h   - hammer-on
 p   - pull-off
 b   - bend
 pb  - pre-bend
 r   - bend release (if no number after the r, then release immediately)
 /\  - slide into or out of (from/to "nowhere")
 s   - legato slide
 S   - shift slide
  - natural harmonic
[n]  - artificial harmonic
n(n) - tapped harmonic
 ~   - vibrato
 tr  - trill
 T   - tap
 TP  - trem. picking
 PM  - palm muting
\n/  - tremolo bar dip; n = amount to dip
 \n  - tremolo bar down
 n/  - tremolo bar up
/n\  - tremolo bar inverted dip
 =   - hold bend; also acts as connecting device for hammers/pulls
 <>  - volume swell (louder/softer)
 x   - on rhythm slash represents muted slash
 o   - on rhythm slash represents single note slash

Misc Legend
-----------
 |  - bar
||  - double bar
||o - repeat start
o|| - repeat end
*|  - double bar (ending)
 :  - bar (freetime)
 $  - Segno
 &  - Coda
Tempo markers -  = BPM(8/16=s8/s16), where s8 = swing 8ths, s16 = swing 16ths

Добавлено: 08.04.2012
Вам также может быть интересно:
Другие материалы по этой песне:

Страница создана 08.04.2012
http://primanota.ru/franz-liszt/hungarian-rhapsody-2-chords.htm
Привет, Гость.
Предлагаем пройти революционный курс по гитаре.
Подарок от PrimaNota.Ru, забирай!