PrimaNota.ru - самый крупный в мире бесплатный архив песенных текстов, аккордов, табулатур и нот


Franz Lambert - Fifa Anthem - таба, видео

Регистрация Запомнить меня
Войти через:  Facebook Google Twitter Vk Yandex Mail.ru

Franz Lambert - Fifa Anthem - таба, видео

Печатать
Просмотров: 179
Уроки эстрадного вокала в Санкт-Петербурге
Track 1
     Q       Q    Q    Q    Q       Q    Q    Q    Q       Q    Q     Q    Q     
E||-------|----------------------|----------------------|-----------------------|
B||-------|----------------------|----------------------|-----------------------|
G||-------|----------------------|----------------------|-----------------------|
D||-------|------------0----2----|--2--------------0----|--2----0~--------------|
A||-------|--3----3--------------|-------3----3---------|------------------3----|
E||--3----|----------------------|----------------------|-------------3---------|


  Q    Q    Q    Q       Q    Q    Q    Q       Q        Q    Q    Q    Q     
----------------------|----------------------|--------|----------------------|
----------------------|----------------------|--------|------------1----3----|
----------------------|----------------------|--------|--3----3--------------|
-------0----2---------|-----------------0----|--------|----------------------|
--3--------------3----|--3----3----0---------|--------|----------------------|
----------------------|----------------------|--3~----|----------------------|


  Q    Q    Q    Q       Q    Q       Q    Q    Q    Q       Q    Q    Q    Q     
----------------------|-------1----|----------------------|----------------------|
----------------------|--1---------|--3----2----2----2----|-----------------0----|
--3----3----3----3----|------------|--3----3----3----3----|-------1---------0----|
----------------------|------------|------------4----4----|--4----3----4----3----|
----------------------|------------|----------------------|--1----4----6---------|
----------------------|------------|------------2----1----|----------------------|


  W                   Q    Q    Q    Q       Q    Q    Q    Q       Q    Q    Q    Q     
-------------------|--1----1----3----5----|--1----1----1----3----|--5----3---------1----|
--1----------------|----------------------|----------------------|------------1---------|
--0----------------|------------0----2----|-----------------0----|--2----0--------------|
-------------------|--3----3--------------|--3----3----3---------|-----------------3----|
--3----------------|----------------------|----------------------|------------3---------|
-------------------|----------------------|----------------------|----------------------|


  Q    Q    Q    Q       Q    Q    Q    Q       Q    Q    Q    Q       Q    Q    Q    Q     
--1----3----5----1----|--1----1---------3----|--0----1----1----3----|--5----1----1----1----|
----------------------|------------3---------|--1-------------------|----------------------|
-------0----2---------|-----------------0----|-----------------0----|--2-------------------|
--3--------------3----|--3----3----0---------|--2----3----3---------|-------3----3----3----|
----------------------|----------------------|----------------------|----------------------|
----------------------|----------------------|----------------------|----------------------|


  Q    Q    Q    Q       Q    Q    Q    Q       E  E  E  E     E  E  E  E     W                 
--6----5----3----5----|--6----8----5----1----|--6--5--1--3--|--1--3--1--0--|--1----------------|
----------------------|-------1--------------|--------------|--------------|-------------------|
--3----2----0----2----|--3---------2---------|--3--2-----0--|-----0--------|-------------------|
----------------------|-----------------3----|--------3-----|--3-----3--2--|--3----------------|
----------------------|----------------------|--------------|--------------|-------------------|
----------------------|----------------------|--------------|--------------|-------------------|


   Q     Q     Q     Q        Q     Q     Q     Q        Q     Q     Q     Q     
---3-----5-----3-----1----|---1-----3-----5-----1----|---1-----1-----3-----5----|
--20----22----20----18----|--18----20----22----18----|--18----18----20----22----|
--------------------------|--------------------------|--------------------------|
--------------------------|--------------------------|--------------------------|
--------------------------|--------------------------|--------------------------|
--------------------------|--------------------------|--------------------------|


   Q    Q     Q     Q        Q     Q     Q     Q        Q     Q     Q     H         
---3----8-----1-----1----|---3-----5-----1-----1----|---1----10-----3-----1--------|
--20----1----18----18----|--20----22----18----18----|--18-----3----20----18--------|
-------------------------|--------------------------|------------------------------|
-------------------------|--------------------------|------------------------------|
-------------------------|--------------------------|------------------------------|
-------------------------|--------------------------|------------------------------|


   Q     Q     Q     Q        Q     Q     Q     Q        Q     Q     Q     Q     
---1-----1-----1-----3----|---5-----1-----1-----1----|---6-----5-----3-----5----|
--18----18----18----20----|--22----18----18----18----|--23----22----20----22----|
--------------------------|--------------------------|--------------------------|
--------------------------|--------------------------|--------------------------|
--------------------------|--------------------------|--------------------------|
--------------------------|--------------------------|--------------------------|


   Q    Q     E   E      E   E   E   E      E   E   H           Q    Q    Q    Q     
---6----8-----5---1--|---6---5---1---3--|---1---0---1--------|----------------------|
--23---------22--18--|--23--22--18--20--|--18--17--18--------|----------------------|
---------------------|------------------|--------------------|----------------------|
---------------------|------------------|--------------------|-------0----2---------|
---------------------|------------------|--------------------|--3--------------3----|
---------------------|------------------|--------------------|----------------------|


  Q    Q    Q    Q       Q    Q    Q    Q       Q    Q    Q    Q       W                 
----------------------|----------------------|----------------------|-------------------|
----------------------|-------1----1----1----|--1---------1---------|--1----------------|
----------------------|----------------------|--0----0----0----0----|--0----------------|
------------0----2----|--0-------------------|----------------------|-------------------|
--3----3--------------|-------3----3----3----|--3----3----3----3----|--3----------------|
----------------------|----------------------|----------------------|-------------------|


   Q     Q     Q     Q        Q     Q     Q     Q        Q     Q    Q     Q     
---1-----1-----3-----5----|---1-----1-----1-----3----|---5-----3----8-----1----|
--18----18----20----22----|--18----18----18----20----|--22----20----1----18----|
--------------------------|--------------------------|-------------------------|
--------------------------|--------------------------|-------------------------|
--------------------------|--------------------------|-------------------------|
--------------------------|--------------------------|-------------------------|


   Q     Q     Q     Q        Q     Q     Q     Q       Q    Q     Q     Q     
---1-----3-----5-----1----|---1-----1----10-----3----|--8----8-----1-----1----|
--18----20----22----18----|--18----18-----3----20----|--1----1----18----18----|
--------------------------|--------------------------|------------------------|
--------------------------|--------------------------|------------------------|
--------------------------|--------------------------|------------------------|
--------------------------|--------------------------|------------------------|


   Q     Q     Q     Q        Q     Q     H            E   E  W                 
---3-----5-----1-----1----|---1-----6-----3--------|---5---6--8----------------|
--20----22----18----18----|--18----23----20--------|--22--23-------------------|
--------------------------|------------------------|---------------------------|
--------------------------|------------------------|---------------------------|
--------------------------|------------------------|---------------------------|
--------------------------|------------------------|---------------------------|


   E   E   E   E   E   E   E   E      W                   E  Q    E  E  E  Q     
---5---1---6---5---1---3---1---0--|---1----------------|------------------------|
--22--18--23--22--18--20--18--17--|--18----------------|-------------1--3--1----|
----------------------------------|--------------------|-----3----3-------------|
----------------------------------|--------------------|--3---------------------|
----------------------------------|--------------------|------------------------|
----------------------------------|--------------------|------------------------|


  Q    Q    Q    Q       Q    Q    Q    Q       Q    Q    Q    Q       Q    Q    Q    Q     
----------------------|----------------------|----------------------|----------------------|
----------------------|----------------------|-------1----3----1----|------------0----3----|
--2----0----0---------|--0----2---------3----|--3-------------------|--2----0--------------|
----------------------|------------3---------|----------------------|----------------------|
-----------------3----|----------------------|----------------------|----------------------|
----------------------|----------------------|----------------------|----------------------|


  Q    Q    Q    Q       Q    Q    Q    Q       Q    Q    Q    Q       Q    Q    Q    Q     
--1----0--------------|----------------------|----------------------|----------------------|
------------3----1----|------------1----3----|--1-------------------|----------------------|
----------------------|--3----3--------------|-------2----0----0----|-------0----2---------|
----------------------|----------------------|----------------------|-----------------3----|
----------------------|----------------------|----------------------|--3-------------------|
----------------------|----------------------|----------------------|----------------------|


  Q    Q    Q    Q       Q    Q    Q    Q       Q    Q    Q    Q       W                  
----------------------|----------------------|-------1----0---------|--------------------|
------------1----3----|--1--------------0----|--3--------------3----|--1~----------------|
--3----3--------------|-------2----0---------|----------------------|--0-----------------|
----------------------|----------------------|----------------------|--------------------|
----------------------|----------------------|----------------------|--------------------|
----------------------|----------------------|----------------------|--------------------|


  Q    Q    Q    Q       Q    Q    Q    Q       Q    Q    Q    Q       Q    Q    Q    Q     
--1----1----3----5----|--1----1----3----5----|--3---------1----1----|--3----5----1----1----|
----------------------|----------------------|-------1--------------|----------------------|
----------------------|----------------------|----------------------|----------------------|
----------------------|----------------------|----------------------|----------------------|
----------------------|----------------------|----------------------|----------------------|
----------------------|----------------------|----------------------|----------------------|


  Q    Q    Q    Q       Q    Q    Q    Q       Q    Q    Q    Q       Q    Q    Q    Q     
--1---------3---------|-------1----1----3----|--5----1----1----1----|--6----5----3----5----|
-------3---------1----|--1-------------------|----------------------|----------------------|
----------------------|----------------------|----------------------|----------------------|
----------------------|----------------------|----------------------|----------------------|
----------------------|----------------------|----------------------|----------------------|
----------------------|----------------------|----------------------|----------------------|


  Q    Q    Q    Q       Q    Q    Q    Q       Q    W                   Q    Q       Q    Q     
--8----5----1----6----|--5----1----3----1----|--0----1----------------|--1----4----|--4----3----|
----------------------|----------------------|------------------------|------------|------------|
----------------------|----------------------|------------------------|------------|------------|
----------------------|----------------------|------------------------|------------|--1----1----|
----------------------|----------------------|------------------------|--4----4----|--1----1----|
----------------------|----------------------|------------------------|--4----4----|--3----3----|


  Q    Q       W                   H        H           H        H           H        H         
--1---------|-------------------|--------------------|--3--------1--------|--4--------6--------|
-------4----|--4----------------|--1--------1--------|--------------------|--------------------|
------------|-------------------|--------------------|--------------------|--------------------|
--1----1----|-------------------|--------------------|--------------------|-----------1--------|
--1----1----|--3----------------|--3--------3--------|--3--------4--------|--4--------1--------|
--3----3----|--4----------------|--4--------4--------|--3--------4--------|--4--------3--------|


  H        H           W                   W                    W                 
-----------6--------|--8----------------|--8----------------|--13----------------|
--4-----------------|-------------------|-------------------|--------------------|
--------------------|--1----------------|--2----------------|---3----------------|
--1--------1--------|--1----------------|--2----------------|---3----------------|
--1--------1--------|--3----------------|--3----------------|---4----------------|
--3--------3--------|--4----------------|-------------------|--------------------|


   W                   W                   W                    W                 
--11----------------|--9----------------|--8----------------|--13----------------|
--------------------|-------------------|-------------------|--------------------|
---3----------------|--3----------------|--1----------------|---1----------------|
---5----------------|--5----------------|--1----------------|---3----------------|
---6----------------|--6----------------|--3----------------|---3----------------|
---6----------------|--6----------------|--4----------------|---4----------------|


   W                    W                   W                   Q    Q    Q    Q     
--16----------------|--15----------------|--8----------------|--1----1----3----5----|
--------------------|--------------------|-------------------|----------------------|
---1----------------|---0----------------|--0----------------|----------------------|
---3----------------|---0----------------|--2----------------|----------------------|
---3----------------|---2----------------|--3----------------|----------------------|
---4----------------|---3----------------|-------------------|----------------------|


  Q    Q    Q    Q       Q    Q    Q    Q       Q    Q    Q    Q       Q    Q    Q    Q     
--1----1----1----3----|--5----3---------1----|--1----3----5----1----|--1----1---------3----|
----------------------|------------1---------|----------------------|------------3---------|
----------------------|----------------------|----------------------|----------------------|
----------------------|----------------------|----------------------|----------------------|
----------------------|----------------------|----------------------|----------------------|
----------------------|----------------------|----------------------|----------------------|


  Q    Q    Q    Q       Q    Q    Q    Q       Q    Q    Q    Q       Q    Q    Q     
------------1----1----|--3----5----1----1----|--1----6----5----3----|--5----6----8----|
--1----1--------------|----------------------|----------------------|-----------------|
----------------------|----------------------|----------------------|-----------------|
----------------------|----------------------|----------------------|-----------------|
----------------------|----------------------|----------------------|-----------------|
----------------------|----------------------|----------------------|-----------------|


  E  E  E  E  E  E  E  E     W                   Q    Q    Q    Q       Q    Q    Q    Q     
--5--1--6--5--1--3--1--0--|--1----------------|----------------------|----------------------|
--------------------------|-------------------|------------1----3----|-----------------1----|
--------------------------|-------------------|--3----3--------------|--3----3----3---------|
--------------------------|-------------------|----------------------|----------------------|
--------------------------|-------------------|----------------------|----------------------|
--------------------------|-------------------|----------------------|----------------------|


  Q    Q    Q    Q       H        H           H        H           H        H         
----------------------|--------------------|--------------------|--------------------|
--3----1--------------|-----------1--------|--3-----------------|--------------------|
-----------------3----|--3-----------------|-----------3--------|--3--------3--------|
------------3---------|--------------------|--------------------|--------------------|
----------------------|--------------------|--------------------|--------------------|
----------------------|--------------------|--------------------|--------------------|


  H        H           H        H           H        H           H        H         
--------------------|--------------------|--------------------|--------------------|
-----------1--------|--------------------|-----------1--------|--3-----------------|
--0-----------------|-----------3--------|--3-----------------|-----------3--------|
--------------------|--3-----------------|--------------------|--------------------|
--------------------|--------------------|--------------------|--------------------|
--------------------|--------------------|--------------------|--------------------|


  H        H           H        H           H        H           H        H         
--------------------|--------------------|--------------------|-----------1--------|
--------------------|--4--------3--------|--1--------3--------|--4-----------------|
--3--------3--------|--------------------|--------------------|--------------------|
--------------------|--------------------|--------------------|--------------------|
--------------------|--------------------|--------------------|--------------------|
--------------------|--------------------|--------------------|--------------------|


  E  E  E  E  E  E  E  E     Q    E  E   E  Q    Q       E  E   E  Q    Q     
--------------------------|--6----6--8--10--6----6----|--6--8--10--6----6----|
--3-----4--3-----1--------|----------1---3------------|-----1---3------------|
-----3--------3-----3--2--|--3----3---------3----3----|--3---------3----3----|
--------------------------|---------------------------|----------------------|
--------------------------|---------------------------|----------------------|
--------------------------|---------------------------|----------------------|


  E  E  E  Q    Q     Q        Q     Q     Q     Q        Q     Q     Q      
--6--8--9--6----6----13----|--18----22----25----18----|--22----25----30----||
-----1--2------------11----|--11----15----18----11----|--15----18----23----||
--3--------3----3----10----|--------------------------|--------------15----||
----------------------8----|--------------------------|--------------------||
---------------------------|--------------------------|--------------------||
---------------------------|--------------------------|--------------------||




Duration Legend
---------------
W - whole
H - half
Q - quarter
E - 8th
S - 16th
T - 32nd
X - 64th
. - note dotted
|-n-|  - n-tuplets


Tablature Legend
----------------
L - tied note
x - dead note
g - grace note
(n) - ghost note
> - accentuded note
NH - natural harmonic
AH - artificial harmonic
TH - tapped harmonic
SH - semi harmonic
PH - pitch harmonic
h - hammer on
p - pull off
b - bend
br - bendRelease
pb - preBend
pbr - preBendRelease
brb - bendReleaseBend
\n/ - tremolo bar dip
\n - tremolo bar dive
-/n - tremolo bar Release up
/n\ - tremolo bar inverted dip
/n - tremolo bar return
-\n - tremolo bar Release down
S - shift slide
s - legato slide
/ -  slide into from below or out of upwards
\ -  slide into from above or out of downwards
~ - vibrato
W - wide vibrato
tr - trill
TP - tremolo picking
T - tapping
S - slap
P - pop
< - fade in
^ - brush up
v - brush down
Добавлено: 28.08.2015
Другие материалы по этой песне:
  • Аккорды и текст

Страница создана 28.08.2015
http://primanota.ru/franz-lambert/fifa-anthem-chords.htm
Привет, Гость.
Предлагаем пройти революционный курс по гитаре.
Подарок от PrimaNota.Ru, забирай!