PrimaNota.ru - самый крупный в мире бесплатный архив песенных текстов, аккордов, табулатур и нот


Franz Josef Degenhardt - Horsti Schmandhoff - таба, видео

Регистрация Запомнить меня
Войти через:  Facebook Google Twitter Vk Yandex Mail.ru

Franz Josef Degenhardt - Horsti Schmandhoff - таба, видео

Печатать
Просмотров: 97
Авторы музыки: Franz Josef Degenhardt
Авторы текста: Franz Josef Degenhardt
Franz Josef Degenhardt: "Horsti Schmandhoff"

OK, here is one of Degenhardt's most beautiful songs. The
fingerpicking is very typical for Degenhardt, with the alternating
bass and offbeat treble. On the C bit, there is a little bass line
which goes like this:


----0---0---0---0---
----1---1---1---1---
----0---0---0---0---
--------------------
--3---2---0---------
--------------3-----

This gives for the first line something like this:

  C               F               G               C
----0---0---0---0---1---1---1---1---3---3---3---3---0---0---0---0--
----1---1---1---1---1---1---1---1---0---0---0---0---1---1---1---1--
----0---0---0---0---2---2---2---2---0---0---0---0---0---0---0---0--
--------------------------------------0-------0--------------------
--3---2---0-----------3-------3-------------------3---2---0--------
--------------3---1-------1-------3-------3-------------------3----
Ihr die...        aus dem...      Viertel...      Ruß


The moll part can be performed on the fifth fret, with the following
chords:

  am      dm      dmsus5
--5-------5-------6-------
--5-------6-------5-------
--5-------7-------7-------
--7-------7-------7-------
--7-------5-------5-------
--5-----------------------

Don't know whether this is the correct name, but it's fun to use a
name like "dmsus5".

Here are the chords for the whole stanza. You can easily find the
complete lyrics on the official Degenhardt web page.

    C      F      G          C
Ihr die... aus... Viertel... Ruß
    C       F         G          C
aus glei... Reihen... und aus... Guß
    am          dmsus5       dm  dmsus5
mit gleicher... Rasen, Chrom und Kies
     am              F
nach schlanken... Kumpanen...
     C            G
fast alle... noch ungern...
     C            G
wenn ihr... irgendwo...
    F        C
von neuen... alte Witze...
    F        C
und einer... Horsti...
   C                   F
Kumpanen, dann... euch ein:
    G                                 C
Ihr wolltet... wie Horstiiiiiiiii Schmandhoff sein.


Feel free to variate the bass. For the G part this is also nice: 

----3---3---3---3--
----3---3---3---3--
----4---4---4---4--
----------5--------
------5-------5----
--3----------------
     
Добавлено: 14.10.2013
Вам также может быть интересно:
Другие материалы по этой песне:
  • Аккорды и текст

Страница создана 14.10.2013
http://primanota.ru/franz-josef-degenhardt/horsti-schmandhoff-chords.htm
Привет, Гость.
Предлагаем пройти революционный курс по гитаре.
Подарок от PrimaNota.Ru, забирай!