PrimaNota.ru - самый крупный в мире бесплатный архив песенных текстов, аккордов, табулатур и нот


Franz Ferdinand - Lucid Dreams - аккорды и текст, таба, видео

Регистрация Запомнить меня
Войти через:  Facebook Google Twitter Vk Yandex Mail.ru

Franz Ferdinand - Lucid Dreams - аккорды и текст, таба, видео

Печатать
Просмотров: 228
Авторы музыки: Franz Ferdinand
Авторы текста: Franz Ferdinand
Lucid Dreams
Franz Ferdinand
Lucid Dreams (full version)

E        A               E             A
Im gonna give my aimless love my angry heart, my desire

           C#m               E                  C#m            E
I woke with wings from lucid dreams and knew the reason i felt hollow

         C#m        E    C#m           A                  F#  
Was that i may never know if there is some great truth or not

CHORUS

C#m                    E   C#m               E
I'll dream a nation of you, a new utopia for you to live in

C#m                   E    C#m                  E        Abm
I'll dream a nation of me, an new ambrosia that we could live in


  C#m         D   F#
e|---------------------------------------------------------------------------|
B|-------------7-------------------------------------------------------------|
G|-----4-6-7-----7-6-7-6-----------------------------------------------------|
D|--6------------------------------------------------------------------------|
A|---------------------------------------------------------------------------|
E|---------------------------------------------------------------------------|

C#m     E C#m           E
Lucid dreams uh huh yeh

            C#m    E C#m        C#m
Im livin in lucid dreams uh huh yeh


VERSE

C#m
Sweep slides on my stereo, short wave round my rodeo
the beat came from addis abylon but im

Abm       C#m      Abm       E             C#m
flying to istanbul oh so why dont you come along?

CHORUS

INTERLUDE


e|--------------4-4-4-4------------------------------------------------------|
B|-----5-----5-----------7-5-7-----------------------------------------------|
G|--6-----6---------------------6-6-6----------------------------------------|
D|---------------------------------------------------------------------------|
A|---------------------------------------------------------------------------|
E|---------------------------------------------------------------------------|

C#m                      E                         C#m               E
Lucid dreams im livin in lucid dreams im living on short wave streams tonight


For the big solo i just improvise in C#m
likewise for the techno bit at the end




Добавлено: 30.07.2012
Другие материалы по этой песне:
  • Аккорды и текст

Страница создана 03.04.2012
http://primanota.ru/franz-ferdinand/lucid-dreams-chords.htm
Привет, Гость.
Предлагаем пройти революционный курс по гитаре.
Подарок от PrimaNota.Ru, забирай!