PrimaNota.ru - самый крупный в мире бесплатный архив песенных текстов, аккордов, табулатур и нот


Frankie Teardrop - Raiders - аккорды и текст, видео

Регистрация Запомнить меня
Войти через:  Facebook Google Twitter Vk Yandex Mail.ru

Frankie Teardrop - Raiders - аккорды и текст, видео

Печатать
Просмотров: 55
Raiders
Frankie Teardrop
-------------------------------------------------------------------------------
                             Raiders - Frankie Teardrop
-------------------------------------------------------------------------------

Tuning: Standard

           A
i need a raid 
         D
need my brothers to come too
        A
i need raid 
          D
need our garbage to come true 
         A
i need a risk 
         D
take me closer to my death and 
          A
i need to know 
         D
how many fuck ups till the 
E
coup de grace i need a
Bm(mute)    A
       raid

Solo: A D 2x

e|---------------------------------------------------------------------------|
B|---------------------------------------------------------------------------|
G|--11--11--11-11-11--9--9-9-9--9-9-9-7--7--7-7-7--6--6-6--4--2--------------| 2x
D|---------------------------------------------------------------------------|
A|---------------------------------------------------------------------------|
E|---------------------------------------------------------------------------|

         A
i need a taste 
            D
of what the hard drugs used to do 
         A
i need a love 
             D
that make me feel like i am shooting dope 
          A
i need to say 
                  D
that i don't ever think i was in love with you 
          A
i need to know 
         D
how many heart breaks till the 
E
coup de grace i need a 
Bm(mute)   A
       raid

          Or play this from "i need a taste" to "love with you"
e|---------------------------------------------------------------------------|
B|---------------------------------------------------------------------------|
G|--------------------------------7-7-7-7-7-7-7-7-7-7-7-7-7-7-7--------------|
D|--7-7-7-7-7-7-7-7-7-7-7-7-7-7-7--------------------------------------------|
A|---------------------------------------------------------------------------|
E|---------------------------------------------------------------------------|

Solo: A D 4x E

e|---------------------------------------------------------------------------|
B|---------------------------------------------------------------------------|
G|--11--11--11-11-11--9--9-9-9--9-9-9-7--7--7-7-7--6--6-6--4--2--------------| 2x
D|---------------------------------------------------------------------------|
A|---------------------------------------------------------------------------|
E|---------------------------------------------------------------------------|

e|--------------------------------------------------------------------------------|
B|--19--19--19-19-19--17--17-17-17--17-17-17-15--15---15-15-15--14--14-14--12--10-|
G|--------------------------------------------------------------------------------| 2x
D|--------------------------------------------------------------------------------|
A|--------------------------------------------------------------------------------|
E|--------------------------------------------------------------------------------|

A D 2x

e|---------------------------------------------------------------------------|
B|---------------------------------------------------------------------------|
G|-----6-----9-----6--------6------------------------------------------------|
D|--9-----7-----9-----7--9-----7---------------------------------------------|
A|---------------------------------------------------------------------------|
E|---------------------------------------------------------------------------|

A
it's all fine it's all fine
         D
i need a raid 

it's all fine            do this 4x (end on E)

it's all fine 
         A
i need a raid 

A
shit seems really good right now 
              D 
let's fuck it up so i can feel alright        do this 2x (solo riff over it)
A                                             end on E
shit seems really good right now 
              D
let's fuck it up so i can deal with life 

          A
i need a taste 
            D
of what the hard drugs used to do 
         A
i need a love 
             D
that make me feel like i am shooting dope 
          A
i need to say 
                  D
that i don't ever think i was in love with you 
          A
i need to know 
         D
how many heart breaks till the 
E
coup de grace i need a 
Bm(mute)   A
i need a raid
Добавлено: 08.08.2015
Вам также может быть интересно:
Другие материалы по этой песне:
  • Аккорды и текст

Страница создана 08.08.2015
http://primanota.ru/frankie-teardrop/raiders-chords.htm
Привет, Гость.
Предлагаем пройти революционный курс по гитаре.
Подарок от PrimaNota.Ru, забирай!