PrimaNota.ru - самый крупный в мире бесплатный архив песенных текстов, аккордов, табулатур и нот


Frankie Teardrop - It Takes Time - таба, видео

Регистрация Запомнить меня
Войти через:  Facebook Google Twitter Vk Yandex Mail.ru

Frankie Teardrop - It Takes Time - таба, видео

Печатать
Просмотров: 120
-------------------------------------------------------------------------------
                      It Takes Time - Frankie Teardrop
-------------------------------------------------------------------------------

Tuning: Standard

Intro:

Guitar 1: no chords

Guitar 2:
e|--5--------5------5--------5-----------------------------------------------|
B|-----3--6----3-6-----3--6----3-6-------------------------------------------|
G|---------------------------------------------------------------------------|
D|---------------------------------------------------------------------------|
A|---------------------------------------------------------------------------|
E|---------------------------------------------------------------------------|

Guitar 1: D

Guitar 2:
e|---------------------------------------------------------------------------|
B|---------------------------------------------------------------------------|
G|--------------------------2-2-----------------------------2-2--------------|
D|----------2-2-----4-4-2-2-----4-4---------2-2-----4-4-2-2-----4-4----------|
A|--5-5-2-2-----5-5-----------------5-5-2-2-----5-5--------------------------|
E|---------------------------------------------------------------------------|

Guitar 1: no chords

Guitar 2:
e|--5--------5------5--------5-----------------------------------------------|
B|-----3--6----3-6-----3--6----3-6-------------------------------------------|
G|---------------------------------------------------------------------------|
D|---------------------------------------------------------------------------|
A|---------------------------------------------------------------------------|
E|---------------------------------------------------------------------------|

Guitar 1: D

Guitar 2:
e|---------------------------------------------------------------------------|
B|---------------------------------------------------------------------------|
G|--------------------------2-2-----------------------------2-2--------------|
D|----------2-2-----4-4-2-2-----4-4---------2-2-----4-4-2-2-----4-4----------|
A|--5-5-2-2-----5-5-----------------5-5-2-2-----5-5--------------------------|
E|---------------------------------------------------------------------------|

Verse:

D
it takes time 
to move on 
it takes time

Guitar 2:
e|---------------------------------------------------------------------------|
B|--7-7-7-7-7-7-7-7-7-7-7-7-7-7-7-7-7-7-7-7-7-7-7-7-7-7-7-7-7-7-7-7-7-7-7-7-7|
G|---------------------------------------------------------------------------|
D|---------------------------------------------------------------------------|
A|---------------------------------------------------------------------------|
E|---------------------------------------------------------------------------|

that's what everybody says i 
G
know it's true 
cuz if i didn't i wouldn't 
be with you 

Guitar 2:
e|---------------------------------------------------------------------------|
B|---------------------------------------------------------------------------|
G|--------------------------2-2-----------------------------2-2--------------|
D|----------2-2-----4-4-2-2-----4-4---------2-2-----4-4-2-2-----4-4----------|
A|--5-5-2-2-----5-5-----------------5-5-2-2-----5-5--------------------------|
E|---------------------------------------------------------------------------|

D
i never cry 
it's been a year and i still think of you with all those other guys
G
i know you see 
somethin different when you look at me

Chorus:

e|--------------------------7-7-5-5------------------------------------------|
B|----------5-5-----7-7-5-5--------------------------------------------------|
G|--7-7-4-4-----7-7----------------------------------------------------------|
D|---------------------------------------------------------------------------|
A|---------------------------------------------------------------------------|
E|---------------------------------------------------------------------------|

F#m      G
it takes time 
(to move on)
F#m      G 
it takes time 
to move on 
D
time

Verse:

D
and i been scared

Guitar 2:
e|---------------------------------------------------------------------------|
B|--7-7-7-7-7-7-7-7-7-7-7-7-7-7-7-7-7-7-7-7-7-7-7-7-7-7-7-7-7-7-7-7-7-7-7-7-7|
G|---------------------------------------------------------------------------|
D|---------------------------------------------------------------------------|
A|---------------------------------------------------------------------------|
E|---------------------------------------------------------------------------|

D
ever since i was a kid but 
that don't stop me from 
lookin in the mirror 
i ain't how i used to be lookin still it's hard to see 

Guitar 2:
e|---------------------------------------------------------------------------|
B|---------------------------------------------------------------------------|
G|--------------------------2-2-----------------------------2-2--------------|
D|----------2-2-----4-4-2-2-----4-4---------2-2-----4-4-2-2-----4-4----------|
A|--5-5-2-2-----5-5-----------------5-5-2-2-----5-5--------------------------|
E|---------------------------------------------------------------------------|

D
i never cry 
i still fuck up and i get fuckin down 
but i'll try for you 
i know you try that's all anyone can do 

Chorus:

e|--------------------------7-7-5-5------------------------------------------|
B|----------5-5-----7-7-5-5--------------------------------------------------|
G|--7-7-4-4-----7-7----------------------------------------------------------|
D|---------------------------------------------------------------------------|
A|---------------------------------------------------------------------------|
E|---------------------------------------------------------------------------|

F#m      G
it takes time 
(to move on)
F#m      G 
it takes time 
to move on 
D
time

F#m      G
it takes time 
(to move on)
F#m      G 
it takes time 
to move on 
D
time
time

Solo:

Guitar 1: D (slide up)

Guitar 2:
e|--5--------5------5--------5-----------------------------------------------|
B|-----3--6----3-6-----3--6----3-6-------------------------------------------|
G|---------------------------------------------------------------------------|
D|---------------------------------------------------------------------------|
A|---------------------------------------------------------------------------|
E|---------------------------------------------------------------------------|

Guitar 1: D G 2x

Guitar 2:
e|---------------------------------------------------------------------------|
B|---------------------------------------------------------------------------|
G|--------------------------2-2-----------------------------2-2--------------|
D|----------2-2-----4-4-2-2-----4-4---------2-2-----4-4-2-2-----4-4----------|
A|--5-5-2-2-----5-5-----------------5-5-2-2-----5-5--------------------------|  2x
E|---------------------------------------------------------------------------|

Chorus:

e|--------------------------7-7-5-5------------------------------------------|
B|----------5-5-----7-7-5-5--------------------------------------------------|
G|--7-7-4-4-----7-7----------------------------------------------------------|
D|---------------------------------------------------------------------------|
A|---------------------------------------------------------------------------|
E|---------------------------------------------------------------------------|

F#m      G
it takes time 
(to move on)
F#m      G 
it takes time 
to move on 
D
time

F#m      G
it takes time 
(to move on)
F#m      G 
it takes time 
to move on 
D
time
time
Добавлено: 22.11.2015
Вам также может быть интересно:
Другие материалы по этой песне:
  • Аккорды и текст

Страница создана 22.11.2015
http://primanota.ru/frankie-teardrop/it-takes-time-chords.htm
Привет, Гость.
Предлагаем пройти революционный курс по гитаре.
Подарок от PrimaNota.Ru, забирай!