PrimaNota.ru - самый крупный в мире бесплатный архив песенных текстов, аккордов, табулатур и нот


Frankie Rose - Night Swim - таба, видео

Регистрация Запомнить меня
Войти через:  Facebook Google Twitter Vk Yandex Mail.ru

Frankie Rose - Night Swim - таба, видео

Печатать
Просмотров: 96
Авторы музыки: Frankie Rose
Авторы текста: Frankie Rose
http://www.missfrankierose.com/

Intro:

e-7--3--7--------3-|
B-7--3--7--8/10--3-|
G-9--5--9--------5-|
D-9--5--9--------5-|
A-7--3--7--------3-|
E-7--3--7--------3-|

Main:

e-----------------------------------------------------------------|
B---------12------12------12----------------8------10------8------|
G-9-11-12----12-9----12-9----12-9----8-9------9-------9------9----|
D----------------------------------------10-----10------10-----10-|
A-----------------------------------------------------------------|
E-----------------------------------------------------------------|


e----------------------------------------------------------------------|
B---------12-----------------------------------------------------------|
G-9-11-12----9-9-9-9/11-11-11-11\9-9-9--9-9-9-12-----------------------|
D------------------------------------------------9-9-9-9\7-7-7-7/9-9-9-|
A----------------------------------------------------------------------|
E----------------------------------------------------------------------|


e-----------------------------------------------------------------------------|
A---------12------------------------------------------------------------------|
G-9-11-12----9-9-9-9/11-11-11-11\9-9-9--9-9-9-12-9-9-9-9/14-14-14-14-14-14-14-|
D-----------------------------------------------------------------------------|
A-----------------------------------------------------------------------------|
E-----------------------------------------------------------------------------|

Hope this helps.
Добавлено: 18.08.2013
Другие материалы по этой песне:
  • Аккорды и текст

Страница создана 18.08.2013
http://primanota.ru/frankie-rose/night-swim-chords.htm
Привет, Гость.
Предлагаем пройти революционный курс по гитаре.
Подарок от PrimaNota.Ru, забирай!