PrimaNota.ru - самый крупный в мире бесплатный архив песенных текстов, аккордов, табулатур и нот


Frankie Chavez - The Search - таба, видео

Регистрация Запомнить меня
Войти через:  Facebook Google Twitter Vk Yandex Mail.ru

Frankie Chavez - The Search - таба, видео

Печатать
Просмотров: 77
-------------------------------------------------------------------------------
                             The Search (Guitar Version)- Frankie Chavez
-------------------------------------------------------------------------------
Tabbed by: Bruno
E-mail: brunoneves_9@hotmail.com

Tuning: Standard

Hey all, his is my first tab so I guess it's a work in progress. There weren't any tabs around for Most of 
Frankie's songs, so i decided to try. This is of the guitar version (not portuguese guitar)! On youtube 
it's the one with footage from "Into the Wild."

I learned it by ear, and there is only one section I'm not sure of in the bridge. It sounds like he puts it
on a loop or something. I typically hum or whistle the notes, but I'll include them for the melody, and if
someone finds a creative way to fit them with the picking, do let me know! 
I also use my foot to make an audible beat, which flows pretty well with the song. 
I've included it in the tabs just to help with tempo in some sections. 

Any suggestions, feel free to email me.

Form:

- Intro
- Verse
- Chorus
- Intro
- Verse
- Chorus
- Bridge
- Chorus
- Outro

 * Marks the beat to show tempo. Use feet to do it. The Recorded version is around 128 bpm I believe.

Intro:

  Am                                   Am/C              Am/D
e|-----------------|-----------------|-----------------|-----------------|
B|---1-------------|---1-------------|---1-------------|-----------1-0---|
G|-----2---0--2-0--|-----2---0--2----|-----2---0--2-0--|---0h2-2p0-----2-|  x2
D|-------2--------2|-------2---------|-------2-------2-|-0---------------|
A|-0---------------|-0---------------|-3---------------|-----------------|
E|-----------------|-----------------|-----------------|-----------------|

*|-*---*---*---*---|-*---*---*---*---|-*---*---*---*---|-*---*---*---*---|


 Verse

  Am                                   Am/C              Am/D
e|-----------------|-----------------|-----------------|-----------------|
B|-----------------|-----------------|-----------------|-----------1-0---|
G|---2--0--2--0----|---2--0--2--0----|---2--0--2--0----|---0h2-2p0-----2-|  x3
D|---------------2-|-----------------|---------------2-|-0---------------|
A|-0---------------|-0---------------|-3---------------|-----------------|
E|-----------------|-----------------|-----------------|-----------------|

*|-*---*---*---*---|-*---*---*---*---|-*---*---*---*---|-*---*---*---*---|

  Am                                   Am/C              Am/D
e|-----------------|-----------------|-----------------|-----------------|
B|-----------------|-----------------|-----------------|-----------------|
G|---2--0--2--0----|---2--0--2-------|---2--0--2--0----|-----------------|
D|---------------2-|-----------------|---------------2-|-0---------------|
A|-0---------------|-0---------------|-3---------------|-----------------|
E|-----------------|-----------------|-----------------|-----------------|

*|-*---*---*---*---|-*---*---*---*---|-*---*---*---*---|-*---*---*---*---|

Chorus:

  Am                                   G                  
e|-0----0-----0-0-0-0----0-----0-0-0-|-3----3-----3-3-3-3----3-----3-3-3-|
B|-1----1-----1-1-1-1----1-----1-1-1-|-3----3-----3-3-3-3----3-----3-3-3-|
G|-2----2-----2-2-2-2----2-----2-2-2-|-4----4-----4-4-4-4----4-----4-4-4-|
D|-2----2-----2-2-2-2----2-----2-2-2-|-5----5-----5-5-5-5----5-----5-5-5-|
A|-0----0-----0-0-0-0----0-----0-0-0-|-5----5-----5-5-5-5----5-----5-5-5-|
E|-----------------------------------|-3----3-----3-3-3-3----3-----3-3-3-|

*|-*-------*--------*--------*-------|-*-------*--------*--------*-------|

   C                                   D                  
e|-3----3-----3-3-3-3----3-----3-3-3-|-5----5-----5-5-5-5----5-----5-5-5-|
B|-5----5-----5-5-5-5----5-----5-5-5-|-7----7-----7-7-7-7----7-----7-7-7-|
G|-5----5-----5-5-5-5----5-----5-5-5-|-7----7-----7-7-7-7----7-----7-7-7-|
D|-5----5-----5-5-5-5----5-----5-5-5-|-7----7-----7-7-7-7----7-----7-7-7-|
A|-3----3-----3-3-3-3----3-----3-3-3-|-5----5-----5-5-5-5----5-----5-5-5-|
E|-----------------------------------|-----------------------------------|

*|-*-------*--------*--------*-------|-*-------*--------*--------*-------|

  Am                                   G                  
e|-0----0-----0-0-0-0----0-----0-0-0-|-3----3-----3-3-3-3----3-----3-3-3-|
B|-1----1-----1-1-1-1----1-----1-1-1-|-3----3-----3-3-3-3----3-----3-3-3-|
G|-2----2-----2-2-2-2----2-----2-2-2-|-4----4-----4-4-4-4----4-----4-4-4-|
D|-2----2-----2-2-2-2----2-----2-2-2-|-5----5-----5-5-5-5----5-----5-5-5-|
A|-0----0-----0-0-0-0----0-----0-0-0-|-5----5-----5-5-5-5----5-----5-5-5-|
E|-----------------------------------|-3----3-----3-3-3-3----3-----3-3-3-|

*|-*-------*--------*--------*-------|-*-------*--------*--------*-------|

   C                                   D (let it ring)               
e|-3----3-----3-3-3-3----3-----3-3-3-|-5---------------------------------|
B|-5----5-----5-5-5-5----5-----5-5-5-|-7---------------------------------|
G|-5----5-----5-5-5-5----5-----5-5-5-|-7---------------------------------|
D|-5----5-----5-5-5-5----5-----5-5-5-|-7---------------------------------|
A|-3----3-----3-3-3-3----3-----3-3-3-|-5---------------------------------|
E|-----------------------------------|-----------------------------------|

*|-*-------*--------*--------*-------|-*-------*--------*--------*-------|

Play Intro

Play Verse

Play Chorus

Bridge:

  F                 F                 G                 G
e|-------1-------1-|-------1-------1-|-------3-------3-|-------3-------3-|
B|-----------------|-----------------|-----------------|-----------------|
G|----2-------2----|----2-------2----|----4-------4----|----4-------4----|
D|-----3-------3---|-----3-------3---|-----5-------5---|-----5-------5---| x2
A|-3-------3-------|-3-------3-------|-5-------5-------|-5-------5-------|
E|-----------------|-----------------|-----------------|-----------------|

*|-*---*---*---*---|-*---*---*---*---|-*---*---*---*---|-*---*---*---*---|

  F                 F                 G                 G#
e|-------1-------1-|-------1-------1-|-------3-------3-|-x-x-x-x-4-4-4-4-|
B|-----------------|-----------------|-----------------|-x-x-x-x-4-4-4-4-|
G|----2-------2----|----2-------2----|----4-------4----|-5-5-5-5-5-5-5-5-|
D|-----3-------3---|-----3-------3---|-----5-------5---|-6-6-6-6-6-6-6-6-|
A|-3-------3-------|-3-------3-------|-5-------5-------|-6-6-6-6-6-6-6-6-|
E|-----------------|-----------------|-----------------|-4-4-4-4-4-4-4-4-|

*|-*---*---*---*---|-*---*---*---*---|-*---*---*---*---|-*---*---*---*---|

Play over Bridge:
********************************
Mainly I hum this part, but whistling, playing on a second guitar, or simply ignoring the bridge and 
playing this also works. You can also try to play around to try and fit it in with the picking, but 
I wasn't able to find any comfortable way to do it. 
                   
  F                 F                 G                 G
e|-----------------|-----------------|-----------------|-----------------|
B|-----------------|-----------------|-----------------|-----------------|
G|-----------------|-----------------|-----------------|-----------------|
D|-----------------|-------0-2--0----|-0---------------|---------------0-|
A|-3---------------|---3-----------3-|---------------3-|-2-------2--3----|
E|-----------------|-----------------|-----------------|-----------------|

*|-*---*---*---*---|-*---*---*---*---|-*---*---*---*---|-*---*---*---*---|

  F                 F                 G                 G
e|-----------------|-----------------|-----------------|-----------------|
B|-----------------|-----------------|-----------------|-----------------|
G|-----------------|-----------------|-----------------|-----------------|
D|-----------------|-------0-2--2--2-|-0---------------|---------------0-|
A|-3---------------|---3-------------|---------------3-|-2-----2-2--3----|
E|-----------------|-----------------|-----------------|-----------------|

*|-*---*---*---*---|-*---*---*---*---|-*---*---*---*---|-*---*---*---*---|

  F                 F                 G                 G#
e|-----------------|-----------------|-----------------|-----------------|
B|-----------------|-----------------|-----------------|---------3/5-----|
G|-----------------|-------0-2-------|-0-----------0---|-1---------------|
D|-3---------------|---3-------------|-----------------|-----------------|
A|-----------------|-----------------|-----------------|-----------------|
E|-----------------|-----------------|-----------------|-----------------|

*|-*---*---*---*---|-*---*---*---*---|-*---*---*---*---|-*---*---*---*---|

********************************

Outro:
Mostly the same as chorus except for the last bar.

  Am                                   G                  
e|-0----0-----0-0-0-0----0-----0-0-0-|-3----3-----3-3-3-3----3-----3-3-3-|
B|-1----1-----1-1-1-1----1-----1-1-1-|-3----3-----3-3-3-3----3-----3-3-3-|
G|-2----2-----2-2-2-2----2-----2-2-2-|-4----4-----4-4-4-4----4-----4-4-4-|
D|-2----2-----2-2-2-2----2-----2-2-2-|-5----5-----5-5-5-5----5-----5-5-5-|
A|-0----0-----0-0-0-0----0-----0-0-0-|-5----5-----5-5-5-5----5-----5-5-5-|
E|-----------------------------------|-3----3-----3-3-3-3----3-----3-3-3-|

*|-*-------*--------*--------*-------|-*-------*--------*--------*-------|

  C                                    D                  
e|-3----3-----3-3-3-3----3-----3-3-3-|-5----5-----5-5-5-5----5-----5-5-5-|
B|-5----5-----5-5-5-5----5-----5-5-5-|-7----7-----7-7-7-7----7-----7-7-7-|
G|-5----5-----5-5-5-5----5-----5-5-5-|-7----7-----7-7-7-7----7-----7-7-7-|
D|-5----5-----5-5-5-5----5-----5-5-5-|-7----7-----7-7-7-7----7-----7-7-7-|
A|-3----3-----3-3-3-3----3-----3-3-3-|-5----5-----5-5-5-5----5-----5-5-5-|
E|-----------------------------------|-----------------------------------|

*|-*-------*--------*--------*-------|-*-------*--------*--------*-------|


  Am                                   G                  
e|-0----0-----0-0-0-0----0-----0-0-0-|-3----3-----3-3-3-3----3-----3-3-3-|
B|-1----1-----1-1-1-1----1-----1-1-1-|-3----3-----3-3-3-3----3-----3-3-3-|
G|-2----2-----2-2-2-2----2-----2-2-2-|-4----4-----4-4-4-4----4-----4-4-4-|
D|-2----2-----2-2-2-2----2-----2-2-2-|-5----5-----5-5-5-5----5-----5-5-5-|
A|-0----0-----0-0-0-0----0-----0-0-0-|-5----5-----5-5-5-5----5-----5-5-5-|
E|-----------------------------------|-3----3-----3-3-3-3----3-----3-3-3-|

*|-*-------*--------*--------*-------|-*-------*--------*--------*-------|

  C                                    D                  C5   A5       Am
e|-3----3-----3-3-3-3----3-----3-3-3-|-5---5---5---5---5---------------|-0-|
B|-5----5-----5-5-5-5----5-----5-5-5-|-7---7---7---7---7---------------|-1-|
G|-5----5-----5-5-5-5----5-----5-5-5-|-7---7---7---7---7---5---2-------|-2-|
D|-5----5-----5-5-5-5----5-----5-5-5-|-7---7---7---7---7---5---2-------|-2-|
A|-3----3-----3-3-3-3----3-----3-3-3-|-5---5---5---5---5---3---0-------|-0-|
E|-----------------------------------|---------------------------------|---|

*|-*-------*--------*--------*-------|-*-------*-------*-------*-------|-*-|


************************************
Notation:

| /   slide up
| \   slide down
| h   hammer-on
| p   pull-off
| ~   vibrato
| +   harmonic
| x   Mute note
| b   Bend
| pb  Pre-bend
| br  Bend release
| pbr Pre-bend release
| brb Bend release bend

************************************
Добавлено: 20.12.2015
Вам также может быть интересно:
Другие материалы по этой песне:
  • Аккорды и текст

Страница создана 20.12.2015
http://primanota.ru/frankie-chavez/search-chords.htm
Привет, Гость.
Предлагаем пройти революционный курс по гитаре.
Подарок от PrimaNota.Ru, забирай!