PrimaNota.ru - самый крупный в мире бесплатный архив песенных текстов, аккордов, табулатур и нот


Frankie Chavez - I Believe Ill Dust My Broom - таба, видео

Регистрация Запомнить меня
Войти через:  Facebook Google Twitter Vk Yandex Mail.ru

Frankie Chavez - I Believe Ill Dust My Broom - таба, видео

Печатать
Просмотров: 57
Уроки эстрадного вокала в Санкт-Петербурге
-------------------------------------------------------------------------------
                     I Believe I'll Dust my Broom - Frankie Chavez
-------------------------------------------------------------------------------
Tabbed by: Bruno
E-mail: brunoneves_9@hotmail.com

Tuning: Drop D

Chords:
   Dm        G       F       A    Dm(var) A(var) G(var)   G7     F7
e|---1---|-------|-------|-------|---5---|---5---|---3--|------|------|
B|---3---|-------|-------|-------|---6---|---5---|---3--|---5--|---3--|
G|---2---|---4---|---2---|-------|---7---|---6---|---4--|---0--|---0--|
D|---0---|---5---|---3---|---7---|---7---|---7---|---5--|------|------|
A|---0---|---5---|---3---|---7---|---5---|-------|------|------|------|
D|---0---|---5---|---3---|---7---|---0---|---7---|---5--|---5--|---3--|

D(var): there's a point where it's easier to play it here because of the 
fill (and sounds consistent with the song). If you are just strumming you can keep playing 
it in the first form.

These are very similar to the chords in standard tuning: only the 6th string (D) changes 
by going up 2 steps. Along the song, I mark a few "x" which is just to mark where I do a
bit of percussion by tapping my thumb against the 6th string to make a snare drum sound. 
You don't have to play it,and when learning the song,I would recommend avoiding it this 
as it can get complicated. Once you get used to the picking though, see what you
like and play around with it.

Form:
- Intro x4
- Verse x3
- Solo
- Verse x1
- Outro

The song doesn't have a chorus, though the verses sort of resemble themselves. 
I put the pick up lines words where they fall in with the first playthrough of the verse
for reference. Full lyrics at the end. This is a blues/rock song, so listen to it to get
a feel for the rhythm.

First three verses are identical.
Fourth verse has fills.
Outro plays mostly like a verse, except for the ending.

Intro:

  Dm                                   
e|-------------------1---|----------------------|
B|---3---3p1---3---3---1-|---3---3p1----3-------|
G|---2-------2-2-2-------|---2--------2-2-------| x4
D|-----------------------|----------------------|
A|-----------------------|----------------------|
D|-0---x-----------------|-0---x------------x---|


Verse:  x3

  Dm                         G   F G             
e|-------------------1---|----------------------|
B|---3---3p1---3---3---1-|----------------------|
G|---2-------2-2-2-------|---4---2-4------------|
D|-----------------------|---5---3-5------------|
A|-----------------------|---5---3-5------------|
D|-0---x-----------------|-5-5-x-3-5------x-x---|

"I'm gonna get ...."            "I believe..."
                                                 
  Dm                                             
e|-------------------1---|----------------------|
B|---3---3p1---3---3---1-|---3---3p1----3-------|
G|---2-------2-2-2-------|---2--------2-2-------|
D|-----------------------|----------------------|
A|-----------------------|----------------------|
D|-0---x-----------------|-0---x------------x---|
                                                                                           
  G     F  ....                                  
e|-----------------------|----------------------|     
B|-----------------------|----------------------|     
G|----4---2-------4---2--|----4---2-------4---2-|     
D|----5---3-------5---3--|----5---3-------5---3-|     
A|----5---3-------5---3--|----5---3-------5---3-|     
D|-5------3----5---------|-5------3----5--------|     

"I'm gonna get up..."     "I believe..."
                                                 
  Dm                                             
e|-------------------1---|----------------------|
B|---3---3p1---3---3---1-|---3---3p1----3-------|
G|---2-------2-2-2-------|---2--------2-2-------|
D|-----------------------|----------------------|
A|-----------------------|----------------------|
D|-0---x-----------------|-0---x------------x---|                                               
   A                 G                           
e|-----------------------|----------------------|       
B|-----------------------|----------------------|       
G|-----------------------|---6/7--5-------------|       
D|-7--7--7--7--7--7--7\5-|-5--------7\-0-4h5-3-0|       
A|-7--7--7--7--7--7--7\5-|-5--------------------|       
D|-7--7--7--7--7--7--7\5-|-5--------------------|  

"If I can't find...."  "She must be..."     
                                                 
  Dm                        A                   
e|-------------------1----|-----------------------|    
B|---3---3p1---3---3--3p1-|-----------------------|    
G|---2-------2-2-2-------2|-----------------------|    
D|------------------------|-7--7--7--7--7-----7\0-|    
A|------------------------|-7--7--7--7--7-----7\0-|   
D|-0---x------------------|-7--7--7--7--7-----7\0-|
    
                                                 
Solo:
Chord Progression (in case you just wanna strum it. 1 Bar each):

Dm G Dm Dm G G Dm Dm A G Dm A

  Dm                    G              Dm               Dm
e|--------------------|--------------|----------------|------------------------------|
B|--------------------|--------------|----/8----6---6-|-----------6-8-/10-8\6-8-6----|
G|----7-5-------------|--------------|------------7---|-7\5-7-7--------------------7-|
D|--0----7-5------7---|--------------|---0------------|------------------------------|
A|----------8-5-8---8-|-------5--8---|----------------|------------------------------|
D|-0------------------|-5--9---------|-0--------------|------------------------------|

  G               G                   Dm                    Dm
e|--------------|-------------------|---------------------|--------------------------|
B|--------------|-------------------|---------------------|--------------------------|
G|--------------|-------------------|---------------------|--------------------------|
D|--------------|-------------------|----------------3p0--|----------3-5-5/7-5\3-5---|
A|--------5-----|---0-2-3--2p0-2p0--|--0-3-3p0-3p0------3-|-5--5-3-5---------------5-|
D|-5---9-----8--|-9---------------5-|-0------------3------|--------------------------|

   A(var)               G(Var)                   Dm                A               
e|-----------5--------|------------3-----------|-----------------|--------3/5-5------|
B|---------5---8-7-5--|----------3---6-5-3h5p3-|---3-1---0-------|--------3/5-5------|
G|-----6--------------|------4-----------------|-------------3---|-2-2-2------2------|
D|---7---7------------|----5---5---------------|-----------------|-------------------|
A|--------------------|------------------------|-----------------|-0---0-------------|
D|-7------------------|-5----------------------|-0---0---0---0---|---------------x---|


Verse:  (x1)
Same idea, with some changes and fills this time.

  Dm                       G     F G                                             
e|-----------------------|----------------------|
B|---3---3p1---3---------|----------------------|       
G|---2-------2-2---------|---4---2-4------------|
D|-----------------------|---5---3-5------------|
A|-----------------------|---5---3-5------------|
D|-0---x-----------x--3--|-5-5-x-3-5-------x----|
                                                
  Dm                       Dm                   
e|-------------------3-1-|----------------------|
B|---3-----1---3---3-----|---3---3p1----3-------|
G|---2-------2-2---------|---2--------2-2-------|
D|-----------------------|-----0----------------|
A|-----------------------|----------------------|
D|-0---x---------x-------|-0----------------x---|
       
                                        
     G   F  ....            G7  F7                
e|---------------------3-|--------------------5-|
B|-----------------------|---5---3-5------------|
G|------4---2-4----2/4---|---0---0-0------5/7---|
D|------5---3-5----------|----------------------|
A|------5---3-5----------|----------------------|
D|-x-3--5-x---3-5--------|-5---x-3-5------------|

   Dm(var)                   Dm (var)                        
e|-----------------/10-8-|----------------------|
B|-----------------------|----------------------|
G|---7---7p5---7---7-----|---7---7p5---7--------|
D|---7-------7-7--7------|---7-------7-7--------|
A|-----------------------|----------------------|
D|-0---x-----------------|-0---x------------x---|                                     
                                                
   A                   G  
e|-----------------------|-----------------------|
B|-----------------------|-----------------------|      
G|-----------------------|---6/7--5--------------|      
D|-7--7--7--7--7--7--7\5-|-5---------7\-0-4h5-3-0|      
A|-7--7--7--7--7--7--7\5-|-5---------------------|      
D|-7--7--7--7--7--7--7\5-|-5---------------------|      
                                                
  Dm                       A                   
e|------------------1----|-----------------------|   
B|---3--3p1---3---3--3p1-|-----------------------|   
G|---2------2-2-2-------2|-----------------------|
D|-----------------------|-7-7-7-7-7---7\0-------|   
A|-----------------------|-7-7-7-7-7---7\0-------|   
D|-0---x-----------------|-7-7-7-7-7---7\0-------|   

  Dm                         G   F G                    
e|-------------------1---|-----------------------|
B|---3---3p1---3---3---1-|-----------------------|
G|---2-------2-2-2-------|---4---2-4----------2--|
D|-----------------------|---5---3-5----------3--|
A|-----------------------|---5---3-5----------3--|
D|-0---x-----------------|-5-5-x-3-5--------x-3--|
                                                
  Dm                         Dm                         
e|-------------------1---|-----------------------|
B|---3---3p1---3---3---1-|---3---3p1----3--------|
G|---2-------2-2-2-------|---2--------2-2--------| 
D|-----------------------|-----------------------|
A|-----------------------|-----------------------|
D|-0---x-----------------|-0---x------------x----|
                                                


      G   F  ....                                 
e|-----------------------|-----------------------|    
B|-----------------------|-----------------------|    
G|----4---2-------4---2--|----4---2-------4---2--|    
D|----5---3-------5---3--|----5---3-------5---3--|    
A|----5---3-------5---3--|----5---3-------5---3--|    
E|-5------3----5---------|-5------3----5---------|    
                                                
  Dm                                            
e|-------------------3-1-|-----------------------|
B|---3-----1---3---3-----|---3---3p1----3--------|
G|---2-------2-2-2-------|---2--------2-2--------|
D|-----------------------|-----------------------|
A|-----------------------|-----------------------|
D|-0---x-----------------|-0---x------------x----|


Outro:

  A                    G
e|-----------------------|-----------------------|
B|-----------------------|----/8--6--------------|
G|-----------------------|-----------7--5--------|
D|-7--7--7--7--7--7--7\5-|-5---------------7-----|
A|-7--7--7--7--7--7--7\5-|-5------------------8--|
D|-7--7--7--7--7--7--7\5-|-5---------------------|

    Dm(var)                    Dm(var)     
e|-----------------|--------------|--------------|
B|-----------------|------------6-|------6\------|
G|----7----7---7---|------------7-|------7\------|
D|----7----7---7---|------------7-|------7\------|
A|-----------------|-0-2-4-5----5-|------5\------|
D|-0-----4---5---6-|---------0----|--------------|

And that's it!
Hope you enjoy, and any criticisms/suggestions please do let me know. 

Lyrics: (with names to keep track in the tab)

Verse 1

I'm gonna get up in the mornin'
I believe I'll dust my broom
I'm gonna get up in the mornin'
I believe I'll dust my broom
Girlfriend the black man you've been lovin'
girlfriend get in my room.

Verse 2

I'm gonna write a letter
telephone everytown I know
I'm gonna write a letter
telephone every town I know
If I can't find her in West Helena
she must be in East Monroe I know

Verse 3

I don't want no woman
wants every downtown man she meets
I don't want no woman
wants every downtown man she meets
She's a no good dooney
they shouldn't allow her on the street

Verse 4

I believe, I believe I'll go back home
I believe, I believe I'll go back home
You can mistreat me here babe,
but you can't when I'm back home

Outro

And I'm gettin up in the mornin
I believe I'll dust my broom
I'm gettin up in the mornin
I believe I'll dust my broom
Girlfriend the black man you been lovin
girlfriend get in my room

************************************
Notation:

| /   slide up
| \   slide down
| h   hammer-on
| p   pull-off
| x   tap string

************************************    
Добавлено: 19.05.2016
Вам также может быть интересно:
Другие материалы по этой песне:
  • Аккорды и текст

Страница создана 19.05.2016
http://primanota.ru/frankie-chavez/i-believe-ill-dust-my-broom-chords.htm
Привет, Гость.
Предлагаем пройти революционный курс по гитаре.
Подарок от PrimaNota.Ru, забирай!