PrimaNota.ru - самый крупный в мире бесплатный архив песенных текстов, аккордов, табулатур и нот


Frankenbok - Dont Call Me Baby - таба, видео

Регистрация Запомнить меня
Войти через:  Facebook Google Twitter Vk Yandex Mail.ru

Frankenbok - Dont Call Me Baby - таба, видео

Печатать
Просмотров: 109
Don't Call Me Baby
F R A N K E N B O K
Tabbed By Aaron Bridgeman (rokken@sicness.net)

http://bogans.arecool.net

KEY
x   = dead note
pm. = palm mute
~   = sustain note

INTRO:
e|----|
B|----|
G|----|
D|-8--|
A|-8--|
E|-6--|
punch that note out a coupla times, palm mute as you hear it

INTRO 2:
e|-x-x-x-x-x-x-6-|
B|-x-x-x-x-x-x-6-|
G|-x-x-x-x-x-x---|
D|-x-x-x-x-x-x---|
A|-x-x-x-x-x-x---|
E|---------------|
kinky wah pedal work there

RIFF:
e|---------------------------------------|-----|
B|---------------------------------------|-----|
G|---------------------------------------|-----|
D|---x-x---x-x-8-8--6-6-----x------------|-----|
A|---x-x---x-x----------8-6-x-6-7-8~--8~-|-----|
E|-6-x-x-6-x-x--------------x------------|-1-4-|

Punch that intro chord on heavy bits too

BRIDGE RIFF:
e|-----------|
B|-----------|
G|-----------|
D|-----------|
A|-----8-8---|
E|-6-6-----9-|

Keep punching that intro chord!!

...AND DONE
Добавлено: 21.02.2012
Вам также может быть интересно:
Другие материалы по этой песне:
  • Аккорды и текст

Страница создана 21.02.2012
http://primanota.ru/frankenbok/dont-call-me-baby-chords.htm
Привет, Гость.
Предлагаем пройти революционный курс по гитаре.
Подарок от PrimaNota.Ru, забирай!