PrimaNota.ru - самый крупный в мире бесплатный архив песенных текстов, аккордов, табулатур и нот


Frank Zappa - Wowie Zowie - текст песни, бас-таба, видео

Регистрация Запомнить меня
Войти через:  Facebook Google Twitter Vk Yandex Mail.ru

Frank Zappa - Wowie Zowie - текст песни, бас-таба, видео

Печатать
Просмотров: 160
Band: Frank Zappa & Mothers of Invention

Album: Freak Out!

Song: Wowie Zowie

Funny song... easy to play, listen to the song a few times to get some rithms.....
Have Fun!!!

Intro

G||--------------------------------------|
D||--------------------------------------|
A||--10-10-10-10-10---10-10---12-----10--|
E||------------------------------12------|

G||-------------------------------------|
D||--10-10-10-10------------------------|
A||---------------------------------10--|
E||---------------12---12-12--13-13-----|


Verse 1
                              X5
G||------------------9-10-10-9--|------|
D||--10--------9-10-------------|------|
A||------12-10------------------|------|
E||-----------------------------|--12--|

G||-------------------------------------|
D||--10-10-10-10------------------------|
A||---------------------------------10--|
E||---------------12---12-12--13-13-----|

(wait)

Verse 2
                              X5
G||------------------9-10-10-9--|------|
D||--10--------9-10-------------|------|
A||------12-10------------------|------|
E||-----------------------------|--12--|

G||-------------------------------------|
D||--10-10-10-10------------------------|
A||---------------------------------10--|
E||---------------12---12-12--13-13-----|

Interlude

G||-----------------------------------------------|
D||-----------------------------------------------|
A||--8-10-10-10---8-10-10-10---8-10-10-10---10-9--|
E||-----------------------------------------------|

G||------------------------------------------------------|
D||----7-10-7-------7-10---7-9-10---7----7-9-10--7-------|
A||--8--------10-8--------------------10-----------10-9--|
E||------------------------------------------------------|

G||-----------------------------|
D||----7-10-7-------7-10--------|
A||--8--------10-8--------8-10--|
E||-----------------------------|

Interlude End
                                          X2
G||----------------------------------------|-----------------------|
D||----------------------------------------|-----------------------|
A||--8-10-10-10---8-10-10-10---8-10-10-10--|--10-10-8-8-7-7--------|
E||----------------------------------------|----------------10-10--|

Verse 3
                              X5
G||------------------9-10-10-9--|
D||--10--------9-10-------------|
A||------12-10------------------|
E||-----------------------------|

G||--------------------------------------|
D||--------------------------------------|
A||--10-10-10-10-10---10-10---12-----10--|
E||------------------------------12------|

G||-------------------------------------|
D||--10-10-10-10------------------------|
A||---------------------------------10--|
E||---------------12---12-12--13-13-----|


Interlude 2

G||----------------------------|
D||----------------------------|
A||----10-----10-----10--10-9--|
E||----------------------------|

G||------------------------------------------------------|
D||----7-10-7-------7-10---7-9-10---7----7-9-10--7-------|
A||--8--------10-8--------------------10-----------10-9--|
E||------------------------------------------------------|

G||-----------------------------|
D||----7-10-7-------7-10--------|
A||--8--------10-8--------8-10--|
E||-----------------------------|

Verse 4
                              X5
G||------------------9-10-10-9--|------|
D||--10--------9-10-------------|------|
A||------12-10------------------|------|
E||-----------------------------|--12--|

G||-------------------------------------|
D||--10-10-10-10------------------------|
A||---------------------------------10--|
E||---------------12---12-12--13-13-----|

End...
                       X6
G||---------5------------|
D||-----2--5-5--3--3-55--|
A||--3-------------------|
E||----------------------|

Tab by: Pedro Zappa
Добавлено: 24.07.2012
Другие материалы по этой песне:

Страница создана 02.05.2012
http://primanota.ru/frank-zappa/wowie-zowie-chords.htm
Привет, Гость.
Предлагаем пройти революционный курс по гитаре.
Подарок от PrimaNota.Ru, забирай!