PrimaNota.ru - самый крупный в мире бесплатный архив песенных текстов, аккордов, табулатур и нот


Frank Zappa - Wild Love - текст песни, бас-таба, видео

Регистрация Запомнить меня
Войти через:  Facebook Google Twitter Vk Yandex Mail.ru

Frank Zappa - Wild Love - текст песни, бас-таба, видео

Печатать
Просмотров: 116
Уроки эстрадного вокала в Санкт-Петербурге
			     WILD LOVE - Frank Zappa
----------------------------------------------------------------------------
Tabbed by: Steve Jouanny
Email: knucmo@yahoo.co.uk

Tuning: Normal

Riff A:

G|---------------------------------------------2-4-5-----------------------|
D|---------------------------------------2-3-3-------5-0-------------------|
A|-2----1------------2----1------------------------------------------------|
E|----------0---2------------0----2----------------------------------------|

Riff B:

G|-------------------------------------------------------------------------|
D|--4-4------4-4------4-4------4-4------4-4-------4-4------4-4-------4-4---|
A|-------------------------------------------------------------------------|
E|-------------------------------------------------------------------------|

G|-------------------------------------------------------------------------|
D|-------------------------------------------------------------------------|
A|----------1-1-11-1---1-1--11-1-------------------------------------------|
E|-------------------------------------------------------------------------|

Riff C:

G|-------------------------------------------------------------------------|
D|--------2----------------------------------------------------------------|
A|--2--4-----2---4--4---2-------------------2------------------------------|
E|-------------------------2---4--4--4--2----------------------------------|

Riff D:

G|-------------------------------------------------------------------------|
D|-------------------------------------------------------------------------|
A|-1--------------------1----------3---0-----------------------------------|
E|-------5----3---3h5--------5---------------------------------------------|

Riff E:

G|------------------------------------------11--10-------------------------|
D|----------------------6--6--7--7--9---11---------------------------------|
A|-------------------------------------------------------------------------|
E|-------------------------------------------------------------------------|

Riff F:

G|-------------------------------------8--7--9---9-------------------------|
D|---------------------6--6--7--7--9---------------9-----------------------|
A|---------------------------------------------------7---------------------|
E|-------------------------------------------------------------------------|

Riff G:

G|----------------------------------------10--11---------------------------|
D|--------------------11--11--9--9--7--6-----------------------------------|
A|-------------------------------------------------------------------------|
E|-------------------------------------------------------------------------|

Riff H:

G|---------------------------------------------|
D|--------------------11--9--8-----------------|
A|------------------------------9-----7--------|
E|---------------------------------9-----9-----|

Riff I:

G|-----------------------------|
D|---------------------9-------|
A|---------7-------------9-----|
E|------5-----5--7-------------|

Riff J:

G|-------------------------------------------------------------------------|
D|-------------------------------------------------------------------------|
A|---3--2--3-----2--4--4--2------------------2-----------------------------|
E|------------1--------------2--4--4--4--2---------------------------------|

Riff K:

G|------------------------------5------------------------------------------|
D|---------------------------------7---------------------------------------|
A|-------------------------------------------------------------------------|
E|--3--6-6-5-5-3--3-1-3-1-3-1----------------------------------------------|


Song Structure:

Riff A
Riff B
Riff C
Riff D
Riff A
Riff B
Riff C
Riff D
Riff A
Riff B
Riff C
Riff E
Riff F
Riff G
Riff H
Riff I x 9
Riff J
Riff D x 2
Riff K

| /  slide up
| \  slide down
| h  hammer-on
| p  pull-off
| ~  vibrato
| +  harmonic
| x  Mute note
===============================================================================
Добавлено: 03.07.2012
Другие материалы по этой песне:
  • Аккорды и текст

Страница создана 30.03.2012
http://primanota.ru/frank-zappa/wild-love-chords.htm
Привет, Гость.
Предлагаем пройти революционный курс по гитаре.
Подарок от PrimaNota.Ru, забирай!