PrimaNota.ru - самый крупный в мире бесплатный архив песенных текстов, аккордов, табулатур и нот


Frank Zappa - Whats New In Baltimore - аккорды и текст, таба, видео

Регистрация Запомнить меня
Войти через:  Facebook Google Twitter Vk Yandex Mail.ru

Frank Zappa - Whats New In Baltimore - аккорды и текст, таба, видео

Печатать
Просмотров: 119
Whats New In Baltimore
Frank Zappa
		   t. See http://www..net/faq/ for more information.                     #
#-----------------------------------------------------------------------------#


What's new in Baltimore
Transcription by Ludovic Iglesias
EMail : andre.iglesias@wanadoo.fr

Theme A:

E ----------------------------- 7>------------------0----2-|
B ---8-7-------------10-- 12>-- 7>----3-2----------1----3--|
G --9---7----------11---- 12>-- 7>---4---2--------0----2---|  x2
D -9-----9-------11-----------------4-----4-----------0----|
A 7-------10-7-9-------------------2-------2-0--3----------|
E ----------------------- 12>------------------1-----3-----|

Theme B

E----------------------------------------|
B------4------4-----------2-----2--------|
G-----6-4----6-4---------4-2---4-2-------|
D----6---4--6---4-------4-----4----------| x2
A--------------------(0)-----------(0)---|
E-(0)--------------(0)---------------(0)-|


Play ABAB then
                                   (          x4                )
E----------------------------------:--------12-16------------16-:
B-------10-11------------7-6-------:------14-----16-14--14-16---:
G-----11-----11---------8---6------:----13------------13--------:
D---12---------11------9-----6--9-8:--11------------------------:
A-13-------------10--10------------:11--------------------------:
E-----------------------------10---:----------------------------:

 (          x2               ) repeat a few times
E----------------------------:-------------------:
B----------------------------:--8-----8------8---:
G----7-9-s12-9------9--s14-11:-9-10--9-10-8-9-10-:
D--10-----------9-11-11------:------8------------:
A-9------------9-------------:-------------------:
E----------------------------:-------------------:

then the keyboard solo

|A7|Adim|Dm|%|A7|%|Dm|%| then

E--------:--------:---------:--------:---------:---------:
B--9---8-:-6---10-:-10---12-:-10---7-:-10---10-:-12----8-:
G--9---8-:-6---11-:--9---12-:-11---8-:-10---11-:-12---10-:
D-10---9-:-7---12-:-11---13-:-13---9-:-10---12-:-13---11-:
A--------:--------:---------:--------:---------:---------:
E--------:--------:---------:--------:---------:---------:

E--------:--------:---------:--------:---------:---------:
B--9---8-:-6---10-:--5---4--:-10---7-:-10---10-:-12----8-:
G--9---8-:-6---11-:--6---4--:-11---8-:-10---11-:-12---10-:
D-10---9-:-7---12-:--7---5--:-13---9-:-10---12-:-13---11-:
A--------:--------:---------:--------:---------:---------:
E--------:--------:---------:--------:---------:---------:

then the sung part

| E | % | % | %  | A | % | A/B |NC

| E | % | % | %  | A | % | A/B |NC

| E | % | % | %  | A  |  %  | NC | NC

                             (guitar solo)
|  E   |  %   |  E   |E B/D#| C#m  |  %  |  %  |  %  |  )
|  E   |  %   |  %   |  %   | C#m  |  %  |  %  |  %  |   )
|  A   |  %   |  %   |  %   |  B7  |  %  |  %  |  %  |   ) x2
| C#m  |  %   |  %   |  %   |  B7  |  %  |  %  |  %  |  )


then back to the sung part     
Добавлено: 15.09.2013
Другие материалы по этой песне:

Страница создана 23.03.2012
http://primanota.ru/frank-zappa/whats-new-in-baltimore-chords.htm
Привет, Гость.
Предлагаем пройти революционный курс по гитаре.
Подарок от PrimaNota.Ru, забирай!