PrimaNota.ru - самый крупный в мире бесплатный архив песенных текстов, аккордов, табулатур и нот


Frank Zappa - The Mud Shark - текст песни, бас-таба, видео

Регистрация Запомнить меня
Войти через:  Facebook Google Twitter Vk Yandex Mail.ru

Frank Zappa - The Mud Shark - текст песни, бас-таба, видео

Печатать
Просмотров: 105
Frank Zappa
The Mud Shark
White Album
Tabbed by Joe Rutan (childrenskunk@ameritech.net)


Only one riff, with variations
G:----------------:--------------------
D:----------------:--------------------
A:-7---7---7--7-7-:-7---7---7--7-7-5---
E:---7---7---7-7--:---7---7---7-7----5-

G:---------------------
D:---------------9-----
A:-7---7---7--7----9-7-
E:---7---7---7-7-------

     
Добавлено: 19.06.2013
Другие материалы по этой песне:
  • Аккорды и текст

Страница создана 19.06.2013
http://primanota.ru/frank-zappa/the-mud-shark-chords.htm
Привет, Гость.
Предлагаем пройти революционный курс по гитаре.
Подарок от PrimaNota.Ru, забирай!