PrimaNota.ru - самый крупный в мире бесплатный архив песенных текстов, аккордов, табулатур и нот


Frank Zappa - The Deathless Horsie - таба, бас-таба, видео

Регистрация Запомнить меня
Войти через:  Facebook Google Twitter Vk Yandex Mail.ru

Frank Zappa - The Deathless Horsie - таба, бас-таба, видео

Печатать
Просмотров: 125
     W                Q       W                Q       W                Q     
E||------------------------|------------------------|------------------------|
B||------------------------|------------------------|------------------------|
G||------------------------|------------------------|------------------------|
D||------------------------|------------------------|------------------------|
A||------------------------|------------------------|------------------------|
E||------------------------|------------------------|------------------------|


  W                Q       W                Q       W                Q     
------------------------|------------------------|------------------------|
------------------------|------------------------|------------------------|
------------------------|------------------------|------------------------|
------------------------|------------------------|------------------------|
------------------------|------------------------|------------------------|
------------------------|------------------------|------------------------|


  W                Q       W                Q       W                Q     
------------------------|------------------------|------------------------|
------------------------|------------------------|------------------------|
------------------------|------------------------|------------------------|
------------------------|------------------------|------------------------|
------------------------|------------------------|------------------------|
------------------------|------------------------|------------------------|


  W                Q       W                Q       W                Q     
------------------------|------------------------|------------------------|
------------------------|------------------------|------------------------|
------------------------|------------------------|------------------------|
------------------------|------------------------|------------------------|
------------------------|------------------------|------------------------|
------------------------|------------------------|------------------------|


  W                Q       W                Q       W                Q     
------------------------|------------------------|------------------------|
------------------------|------------------------|------------------------|
------------------------|------------------------|------------------------|
------------------------|------------------------|------------------------|
------------------------|------------------------|------------------------|
------------------------|------------------------|------------------------|


                                  |-3|    |-3|          |-3|    |-3|  
  W                E.  T  T    E  E  S E  E  S Q     E  E  S E  E  S  
----------------------------|----------------------------------------|
----------------------------|------------------2b--------------------|
----------------------------|--4--4--1-4--4--1-------------1-4--4--1-|
-----------------------4h-6-|---------------------------4------------|
----------------------------|----------------------------------------|
----------------------------|----------------------------------------|


     |-3| |-3|                                                        
  E  E  S E  S E   Q    Q    Q          H        E  E  E  E  S  E  S  
--2----------4-2~--L-----------------|-------------------------------|
-----0----0------------------2pbr----|--L--------L--------2--2p-0--0-|
--------1--------------------1pbr----|--L--------L--4-----1----------|
-------------------------------------|-----------------------6p-4--4-|
-------------------------------------|-------------------------------|
-------------------------------------|-------------------------------|


                            v                       
  W                Q        W                 Q     
------------------------|--------------------------|
--L----------------L----|---0----------------------|
------------------------|--------------------------|
--L----------------L----|--11-----------------L----|
------------------------|---9----------------------|
------------------------|---7----------------------|


                               >       >                             
                                  |-3|    |-3|                       
   W                E  S  S    E  E  S E  E  S E  Q.        Q        
----------------------------|---------------------------------------|
----------------------------|--0--0----0--0----4--2brb------2pbr----|
----------------------------|--------1-------1----------------------|
---L-------------------4h-6-|---------------------------------------|
----------------------------|---------------------------------------|
----------------------------|---------------------------------------|


                                    >            >                
                                      |-3-|                       
  E  Q.       H.               Q    T T T T T E  S S E  H         
----------------------------|-------0----------------------------|
--L--2br------2b------------|--4------4-2-0---2--0---------------|
----------------------------|---------------3------1-------------|
----------------------------|------------------------4--L--------|
----------------------------|------------------------------------|
----------------------------|------------------------------------|


       ^    >       >                     >                 >            
               |-3|                       |--3--|                        
  Q    Q    E  E  S E  S S E   E     Q    Q     E  H        S  S  S  S   
-------x--------------------------|-------------2--2--------2h-4p-2h-4h-|
-------x--------------------------|-------2b----------------------------|
-------x--------------------------|-------------------------------------|
--L----x----4--4--1-4--4-1-4b--4--|--L----------------------------------|
-------x--------------------------|-------------------------------------|
-------x--------------------------|-------------------------------------|


           \6                       
  |--3-|                 |---3--|   
  Q    E   H        Q    E   E  E   
--L----2---------------------------|
-------------------------4p--2--2--|
-----------------------------------|
----------16-----------------------|
-----------------------------------|
-----------------------------------|


        >                                        >        
        |--3--|    |--3--|        |---3---| |-3| |--5--|  
  Q     T  T  T E  T  T  T S  E.  E  E  S S E  S S T T T  
--------0h-----------------------------------------------|
--2b-------4p-2-4--4p-2p-0-2b-2---2--2--2-0-4--2-2-4-2-0-|
---------------------------------------------------------|
---------------------------------------------------------|
---------------------------------------------------------|
---------------------------------------------------------|


       >            >     >             >       >  
  |-3|                 3  3       3     |--3--|    
  E  S E   Q    E.  S  E  E  S    T  E  T  T  T S  
--------------------7p-5--5--4pbr-4p-2--4p-2p-0-0-|
--2--2-0~--L--------------------------------------|
--------------------------------------------------|
--------------------------------------------------|
--------------------------------------------------|
--------------------------------------------------|


                      >  >                 
                             |-3|          
  S E   S  Q.     E   S  T T E  S Q        
--0-0b--2~-L---------11-11-7----7-6pbr----|
-----------------------------7------------|
------------------------------------------|
------------------------------------------|
------------------------------------------|
------------------------------------------|


  >                   >                        
  3  3   3  --6  6  6                          
  S  E.  E  S E  E  S S T T T T T T H          
--2--0---0------------------------------------|
---------0--L---------------------------------|
--4\----------2-------------------------------|
-----------------2--1-2-1-2-1-2-1-------------|
----------------------------------2-0~--------|
----------------------------------------------|


                    > >            
                        |---5---|  
  Q    E.  H        T T S S S S S  
----------------------5-5-5-5-5---|
----------------------------------|
----------------------2-2-2-2-2---|
--------------------4-------------|
--L-------------------------------|
----------------------------------|


       >            >                       >                
  |-6| |-6|                                                  
  E  S E  S S S     S  S     S S    S S E   E   S     S S S  
--5--7-4--4-5-2pbr------------------2-2-2--12--11pbr-11-7-7-|
-----0-------------12-10pbr-10-9pbr-------------9-----9-7---|
--2----1--1-2------11---------------------------------------|
--------------4---------------------------------------------|
------------------------------------------------------------|
------------------------------------------------------------|


          >         >                                     
  |-3|              |---7---| 7 7                  |-3-|  
  E  Q    S S S  S  S S S S S S S S  S S S   S T T S S S  
--7--9----9-9-9-11-11-9-7-9-7-9-7------7-----------0-----|
----------------------------------5b-7---5b~-L-3-2---3---|
---------------------------------------------------------|
---------------------------------------------------------|
---------------------------------------------------------|
---------------------------------------------------------|


                                               >      
     |--3--| |--3-|     |--3--|  |--3-|  |-6-| |-6-|  
  E  S  S  S Q    E  E  S  S  S  Q    E  E   S S S S  
-----------------------------------------------------|
-----3p-2h-4-2----0-----4p-2h-4p-2----0----------5---|
-----------------------------------------6b--6-6---6-|
-----------------------------------------------------|
-----------------------------------------------------|
-----------------------------------------------------|


  |---5--|                |--3-|                                 
  E  S S S Q.     E  Q    Q    E      Q    H        Q    S  E.   
-----------------------------------|---------------------2\-----|
--0----0-0-L--------------2----0b--|--0----L--------------------|
--------------------------1--------|----------------------------|
-----4-4-4-L-------------------4b--|--4----L--------------------|
-----------------------------------|----------------------------|
-----------------------------------|----------------------------|


  >     >        >    >    >                 >                >     tr          
                                                         |--3-|                 
  E.  S S  S S S S  S S  S S  S S S E  E     E  E  Q     Q    E  E  E     Q     
---------------2-2/-4-4/-5-5/-7-7-9-9--9--|-------------------0--L-------------|
--4---0-2\-0-0----------------------------|--5--4--4~----L----------4(5)--L----|
------------------------------------------|------------------------------------|
------------------------------------------|------------------------------------|
------------------------------------------|------------------------------------|
------------------------------------------|------------------------------------|


                     >      >  
  H        Q    Q    S  S S S  
--------------------------0-4-|
--4-------------x----4h-5---2-|
------------------------2-2---|
---------------------4--------|
------------------------------|
------------------------------|


                     >                            
                              |---3--|            
  S S S S S  S  S  S S  S S S S  S   S  E   Q     
--2-0-0-2-2/-4h-4h-5-5/-7-7-9-9b-9h-12p-9~--L----|
--2-0--------------------------------------------|
-------------------------------------------------|
-------------------------------------------------|
-------------------------------------------------|
-------------------------------------------------|


       >     >                             >                 >     >         
                                                 |--3--|  |--3--|  |--3--|   
  Q    Q     E  E  S  S S  S Q       E  E  Q     E  E  E  E  E  E  E  E  E   
--L----0~-------------------------|--------------------------------0--2--2--|
-------------4--0-----------------|--------------------------2--2-----------|
----------------------------------|--------------------2--2-----------------|
-------------------7\-2-1h--------|-----------------4-----------------------|
---------------------------2-0----|--L--2--2~-------------------------------|
----------------------------------|-----------------------------------------|


  >    >                                            
            |--3--|                                 
  S  S S  S E  E  E    E  E  S     S E  S S S    S  
--4h-5-5h-7-7--9--9h--12--9--4pbr~-0----4-0--------|
-------------------------------------4------4pbr-0-|
---------------------------------------------------|
---------------------------------------------------|
---------------------------------------------------|
---------------------------------------------------|


  \6         >        PM  >                  >             
  S    S S S E  E  E  E   S  S  S  S  S   S  T  T   T   T  
--0----2-2-4-5--5--L--5--14-------------------------------|
--0pbr----------------------12-12-------------------------|
----------------------------------14-14p-13-13-14p-13p-11-|
----------------------------------------------------------|
----------------------------------------------------------|
----------------------------------------------------------|


              >                                >       
                                           |---3---|   
   Q      E   T   T   T   T   Q      E  E  E   E   E   
----------------------------------------------12--12--|
-----------------------------12~----------------------|
-------------11h-13p-11h-13p-11~-----L----------------|
--14b-----L-------------------------------------------|
------------------------------------------------------|
------------------------------------------------------|


   >      >                                    
   |-6-|  |-6-|        |--3--|                 
   E   S  E   S  Q     Q     E   Q       Q     
--12--11-12--11-12b----L----12----------------|
--------------------------------12pbr----0----|
-----------------------------------------0----|
-----------------------------------------0----|
----------------11----------------------------|
----------------------------------------------|


                                   >                
  |-3|    |--3--|                                   
  E  Q    E     S  S S  S S E.     T S E   S  S  S. 
--7-------0pbr--0h---0h---0--------7-L----12--L----|
-----7-------------7---------------L---7-----------|
------------------------8---8pbr-------------------|
--9--L------------------------------------14--L-16-|
---------------------------------------------------|
---------------------------------------------------|


  >                  >        >       >         
  |3|                                           
  S E  T T T T S  E  S  E.  S S  S E  S  S  E   
--7----0---0--------------------------2b-4p-2--|
----4----4---4-4\-2--2h-2---2-2p-0-0--2--------|
-----------------------------------------------|
-----------------------------------------------|
-----------------------------------------------|
-----------------------------------------------|


                 >   >                
  H.             S S S S S T T T T S  
-------------------------------------|
-------------------0-0-2-0-2-0---0-2-|
-----------------2-------2---4-2-4---|
--4br--------------------------------|
-------------------------------------|
-------------------------------------|


  >              >            >               
  T  T  T  T  E  S  S  S  S S S S S H         
---------------------------------------------|
--0h-2p-0h----0-----4p-2p-0-2----------------|
-----------2h----4b--------------------------|
------------------------------4-6-4-L--------|
---------------------------------------------|
---------------------------------------------|


  >                       >     >     
  |--3-|                              
  S S  S E  H        Q    S  S  S  S  
-------------------------------------|
---------------------x---------------|
---------------------x-------1h-1h-2-|
--1-6\-1-1--L--------x----2b---------|
---------------------x---------------|
-------------------------------------|


  >   >         >     >    >    >             
  S S T T T T S S S S S  S S  S S  E  S Q     
--------------------------------0h-2--0-L----|
----0-0-2-0---0-------0h-2-2h-4--------------|
--2---------2-----2--------------------------|
----------------4---4------------------------|
--------------------------------4p-2--2-L----|
---------------------------------------------|


  >                    >             >           
          |-3-|              |-3-|               
  S  E  S S S S S S  S S S S S S S S S  S E  S   
------------------------------------------------|
--0b-0------0--------------0-2-0----------------|
--------2-2---2-1-2\-1---2-------2-1-2p-1----2h-|
-----------------------4------------------4-----|
------------------------------------------------|
------------------------------------------------|


            >     >                >         
      |-3-| |-3-| |--5--|                    
  S S S S S S S S S T T T H        S S S S   
--------------------------------------------|
-------------------------------------2-2----|
--1---2-1---2-1--------------------2-----2h-|
--6-4-7-6-4-7-6-4-7-7-6-4-L-----------------|
--------------------------------------------|
--------------------------------------------|


                    |---5---|            
  H.           S S  T T T T T  S S   E   
--------------------------0-------------|
-----------------5b-7-9-7---7-10-9b-10--|
--4-------------------------------------|
----------------------------------------|
----------------------------------------|
----------------------------------------|


     >           >   >    >         tr           
  |-3|     |--3--|                               
  E  Q     Q     E   E.   T  T  E   E      Q     
--L--------5~-------12---------12---------------|
-----7b------------------14-16-----16(17)--L----|
-----------------6------------------------------|
------------------------------------------------|
------------------------------------------------|
------------------------------------------------|


  >     >                                
                              |-3-|      
  E  E  E  S S S E   S E   E  S S S S S  
-----0--0-----------------------5-------|
--4--------4-4-L-4b--5-7b--9--9---9-7-9-|
----------------------------------------|
----------------------------------------|
----------------------------------------|
----------------------------------------|


                     >         >         
                     |---3--|  |--3--|   
   H           E  E  E   E  E  E  E  E   
---------------L--7--7p--5--5--5--7--5--|
--10b~---------L------------------------|
----------------------------------------|
----------------------------------------|
----------------------------------------|
----------------------------------------|


             >                >              
                           |-6| |-6|         
   E    E  S E  S S E   S  E  S E  S E  E    
---0----L--L-5--5-5-7---------5-5--5-7--7b--|
--12b---L--------------16--L----------------|
--------------------------------------------|
-----------------------14-14----------------|
--------------------------------------------|
--------------------------------------------|


           |--3--|  |----3----|             
   E    E  E  E  E  E   E     E  Q.     E   
--------0--L--5--5--5b--4pbr--2--2---------|
--12b--12----------------------------------|
-------------------------------------------|
-------------------------------------------|
-------------------------------------------|
-------------------------------------------|


  tr               >        >         \6    
          |--3--|  |--3--|  |--3--|         
  Q       E  E  E  E  E  E  E  E  E   Q     
-------------------0--------0-----0--------|
--4(5)----L-----------4--4-----4-----------|
-------------------------------------------|
-------------------------------------14----|
----------------0--------------------------|
-------------------------------------------|


  >                                             
  E  E   S S S S S S S S  S S  S S T T S  S  S  
-----7b--7-5---2-5-2-7-4\-5-7-11-9-------12-12-|
--x--------------5-----------------2-----------|
--x--------------------------------------------|
--x----------------------------------4---------|
-------------0---------------------------------|
-----------------------------------------------|


   >                    >         >     
                             |-6| |-6|  
   E   Q     E  E  E  S E  S E  S E  S  
--12--11----11--7--5--7-4--4-2--2-4--4-|
---------------------------------------|
---------------------------------------|
---------------------------------------|
---------------------------------------|
---------------------------------------|


   >                 >       >                             PM                  
   E.   S  E.   S  S S S S S S S S S  S S S    H        E  E  S  E  S S E   S  
--------------------------------------------|-----------------7-10--5---------|
--17------16---16----2----------------------|--------------0----------7-5b--7-|
----------16---16-16---2-----2--------------|---------------------------------|
--16---16---------16-----4-2---4-2-2\-1-----|---------------------------------|
----------------------------------------2-0-|--L--------L---------------------|
--------------------------------------------|---------------------------------|


  S  S S S  S E  S H        Q     
--0b-5---0b-0--------------------|
-------7---------0-0-------------|
--------------7------------------|
---------------------------------|
---------------------------------|
---------------------------------|


   >                                                         >                
   11  11  11 11 11---- |-----3----|      |---3--|   3   3  ---- 11  11 11 11 
   E   E   T  T  T  E   E      E   E      E   E  E   E   E   E   E   T  T  T  
------------------------------------------------------------12--12--12-------|
--17--17--17-16-14-16--13pbr--13--13pbr--14--16--L--13--14-------------16-13-|
-----------------------------------------------------------------------------|
-----------------------------------------------------------------------------|
-----------------------------------------------------------------------------|
-----------------------------------------------------------------------------|


                              >              >                              
   |-----3----|   |---3---|   |-----3----|   |------11-----|  3  3  3   3   
   E   E      E   E   E   E   E   E      E   E   E   T  T  T  S  S  E   E   
---------------------------------------------------------------------------|
--16---------------------16--16-------------17--17--17-16----16-16---------|
------17pbr--17--17--18----------17pbr--18----------------17-------17--17--|
---------------------------------------------------------------------------|
---------------------------------------------------------------------------|
---------------------------------------------------------------------------|


               >            >                       
   |---3---|   |----3---|   |---3---|               
   E   E   E   E    E   E   E   E   E   Q.      E   
---------------------------------------------------|
----------16--16b--16--14--16--17--18--19------19--|
--17--18-------------------------------------------|
---------------------------------------------------|
---------------------------------------------------|
---------------------------------------------------|


   >              >              >             \6           
                              |----5---|                    
   S  T  T  S  S  S   S   E   S  T  T  T S  S  Q     S E.   
-----------------------------------------------------------|
--19-19-17-16-16-16h-17p-16--16-16-17-16-L-----------------|
-----------16-16---------------------------16-18-----L-----|
-----------------------------------------------------------|
-----------------------------------------------------------|
-----------------------------------------------------------|


                                           >                    
            |-3-|   3  3   3   3   3   3                        
   E    E   S   T   T  E   E   E   E   E   S  T  T  E   E   E   
---------------------------------------------------------------|
-----------16h-17p-16------------------------------------------|
--16b--18-------------18---L--18--18--18--18-18-18-17---L--18--|
---------------------------------------------------------------|
---------------------------------------------------------------|
---------------------------------------------------------------|


   >                               >   >              
                             |--3--|                  
   Q     T  T  E.   E   E    Q     E   S  T  T  S  S  
-----------------------------------------------------|
--------16-------------------------------16----------|
--18-------18-17----L--13b--13----17--18----18-17-17-|
-----------------------18b--18-----------------------|
-----------------------------------------------------|
-----------------------------------------------------|


                   >        \6                  
         |--3--|   |-3|                         
   S  S  T  T  T S E  S E   E   Q    E    Q     
-----------------2-4--2-4------------2b~--L----|
-----17----------------------------------------|
--18----16-------------------------------------|
-----------19-18-----------16---L--------------|
-----------------------------------------------|
-----------------------------------------------|


                     >           >                   
  |--3--|  |---3--|  |----11--|  |---3---| 3  3  3   
  E  E  E  S S E  E  E  T T T E  E  E  S S E  E  E   
--L--7--7--7-2-4--4--4--7-5-4-4--4--4--7-5-4--4--7--|
----------------------------------------------------|
----------------------------------------------------|
----------------------------------------------------|
----------------------------------------------------|
----------------------------------------------------|


  |---3---|  |-3| |3|  |---3--|  |-3|           
  S  S E  E  E  S S E  E  E   E  E  Q    E  E   
--7b-4-4--4--4--4-2-0--2--0b----------------4--|
--------------------------x------0--2----L-----|
------------------------------1----------------|
-----------------------------------------------|
-----------------------------------------------|
-----------------------------------------------|


            >    >    >    >                
            |-6| |-6| |-6| |-6| |-3|  |3|   
  Q    Q    E  S E  S E  S E  S E  S  S E   
--7----7----9--7-9--7-9--7-9--7-9--9b-9-7--|
-------------------------------------------|
-------------------------------------------|
-------------------------------------------|
-------------------------------------------|
-------------------------------------------|


     >               >         PM                            >  >     >        
     |3|   3  3   3                         |---3--|                     |-3|  
  E  S E   E  E.  S  S E  S E  E  E   E     Q    S S Q.      E  E  E  E  E  S  
--L--9-9b--9--7---9-12-9--7-L--7--2b--2--|--0---------------/9--9--7--7--4--2-|
-------------------------------5---------|-------2-0-2------------------------|
-----------------------------------------|------------------------------------|
-----------------------------------------|------------------------------------|
-----------------------------------------|------------------------------------|
-----------------------------------------|------------------------------------|


                  <  >  >          >  >           
  S E.  Q.        E  E  T  T T  T  E  T  T  T  T  
--4-2---L------<>14--2--2p-0-------2--2h-4p-2p-0-|
-----------------------------4p-2h---------------|
-------------------------------------------------|
-------------------------------------------------|
-------------------------------------------------|
-------------------------------------------------|


  >            tr                      PM        
                          |-3-|        |--3--|   
  E  T  T T  T Q       E  S S S  E  E  E  E  E   
--2--2p-0------4(5)----L--7-4-2h-4--4-----2--2--|
----------4p-2----------------------------------|
---------------------------------------2--------|
------------------------------------------------|
------------------------------------------------|
------------------------------------------------|


  >       >                 >                   
  |-3-|     |-3-|           |--3--|             
  S S S S S S S S E    Q    E  E  E  T T S E    
--2-0---2-2-2-0-------------2--4--4--4-2---2b--|
------4---------4-4b~--L-----------------------|
-----------------------------------------------|
-----------------------------------------------|
-----------------------------------------------|
-----------------------------------------------|


                                                              >                 
  |-6| |-6-|                             |-----3-----|        |--5-|  |--3--|   
  E  S S S S  H         Q    Q        E  Q      Q    Q     E  E  S E  Q     E   
--7--7-4-2-------------------9b----|--L--9b----12----9b----9--7--7-9--9b----9--|
-----------2-14b-------------------|--------------------------0--0-------------|
-----------------------------------|-------------------------------------------|
-------------13--------------------|-------------------------------------------|
-----------------------------------|-------------------------------------------|
-----------------------------------|-------------------------------------------|


                         >                              
   |---3---|             |----5----|          |--3--|   
   E   E   E    Q        S  S  E   S  E    E  Q     E   
----------12b--12pbr----------------------16-----------|
--12--------------------14-12-14--14-12b-----------12--|
------13-----------------------------------------------|
-------------------------------------------------------|
-------------------------------------------------------|
-------------------------------------------------------|


   >                                                                  >   
                  |--|   3      |-----3----|  |-6-|  |--6--| |--3-|   3   
   S  S   S  S S  S  E   S   T  E      E   E  E   S  S  S  S E  T T T E   
------------12-L---------------------------------------------5--4-2-0-7--|
--14-14b-16------14-12------14--------14--12--L-----12-------------------|
------------------------13b----13pbr-------------14----14-13-------------|
-------------------------------------------------------------------------|
-------------------------------------------------------------------------|
-------------------------------------------------------------------------|


            >                                 
  5    5  5 ---|-------3------|  3  3         
  E.   S  S E  E  E  Q     E  E  E  E   Q     
--5h---7p-5-4--2-----9b----9--7--5--4--------|
------------------4--------------------14----|
---------------------------------------13----|
---------------------------------------------|
---------------------------------------------|
---------------------------------------------|


   |---6--|  |--|  |-6-| |-6-|                   
   S   S  S  S  E  S S S S S S  Q.     Q     E   
-------------------4-2-0---4-2b-L------2b-------|
------------------------------------------------|
--14h-16-14-13-14-------------------------------|
------------------------------------------------|
------------------------------------------------|
------------------------------------------------|


    >      PM PM PM PM PM PM   PM PM PM PM  
  S T T E  E  E  S. T  T  T  S E  E  E  E   
----7-4-------4--2--2--0-------4--7--4--2--|
-----------4--------------4----------------|
-------------------------------------------|
-------------------------------------------|
-------------------------------------------|
-------------------------------------------|


           >         >                            
  E   S S  E   S  S  S  S  S  S Q     S  S  S  S  
--0/--4-7----------------------------16-12-16-12-|
----------12--14-14-14-14-16-14-L----------------|
--------------------------16---------------------|
-------------------------------------------------|
-------------------------------------------------|
-------------------------------------------------|


   >                                                                        
   |------5------|  3      3      3  3          |---3---|   3   3           
   S  S  S  T  T S  E      E   T  T  T  Q       E   E   E   E   E  T  T  T  
--16-------19----------------------------------------------12--12--L-------|
-----17-17----17---16pbr---------16-16-14b~--------17--16------------16-12-|
--------------------------16-------------------16--------------------------|
------------------------------14-------------------------------------------|
---------------------------------------------------------------------------|
---------------------------------------------------------------------------|


               3      3               |---3--|  |-3-|      6  6  6    6  
   S  S  S  S  Q      T  T  T  E      E      S  E   S  E   S  S  E.   S  
-----12----12-12b----19-16-------------------------16-------------------|
--------16--------------------17pbr--16pbr-----16-----19--17-19-17---17-|
--------------------------------------------16--------------------------|
------------------------------------------------------------------------|
--14-----------------------19-------------------------------------------|
------------------------------------------------------------------------|


                 >                                >                 
   |---3--|              |-6-|  |-6-|  |---3---|                    
   E      S  E   E.   S  E   S  E   S  E   E   E  S  S  T  T  T  T  
---------12---------------------------------------4h-7p-4h-7p-4h---|
--14pbr-----14--12---12------------------------------------------7-|
------------------------13--13-13--13-13--13--13-------------------|
-------------------------------------------------------------------|
-------------------------------------------------------------------|
-------------------------------------------------------------------|


  |--3--|  |-6-| |6|          |--3--|  |--3--|   
  E  E  E  S S S S E  Q       E  E  E  E  E  E   
--4--4--4--4-7-4-7-4----------0--0--0--0--0--0--|
----------------------7pbr-------------7--7--7--|
------------------------------------------------|
------------------------------------------------|
------------------------------------------------|
------------------------------------------------|


  >                                         >           
  7 7 7 7  7 7        |-3-| |---3--| |---3--|  |--3-|   
  S S S E  S S E    S T T T Q    S S E   E  E  Q    E   
--7-4-2----7-4-7b~--4-4-3-0-2----0-------3--3--7----4--|
------7-0--------------------------2-2b----------------|
-------------------------------------------------------|
-------------------------------------------------------|
-------------------------------------------------------|
-------------------------------------------------------|


  >                                              
                  |--3--|  |-----7-----| 7 7     
  E  S T T Q      E  E  E  E  E  E  E  S S Q     
--7--4-7-4--------2--4--4--6--4-----6--4---4----|
-----------7----0g0--------------7-------7------|
------------------------------------------------|
------------------------------------------------|
------------------------------------------------|
------------------------------------------------|


     >   >     >     >                  >     >       >            
  7  7 7 7 7 7 ----3            |--3-|  3  3      3 --|--6-|  6 6  
  E  S S S S S E   S T  T  T  T Q    E  E  E  T T T S S S  S  S S  
-----4-2-4-2-0-2h--4-4h-6p-4p-0-4----4--7--7--7-6-4-6---0h-3p-0---|
----------------------------------------------------------------3-|
--0---------------------------------------------------7-----------|
------------------------------------------------------------------|
------------------------------------------------------------------|
------------------------------------------------------------------|


  >                 >    >              >           
                              |---5---|             
  T T T T T S T T T E  S E  S S S S S S E  S  S  S  
--4-6-7-6-4-6-6-4---0----2--0-------0-0------------|
------------------7-0--2-2----0-2-2-----2--0h-2p-0-|
---------------------------------------------------|
---------------------------------------------------|
---------------------------------------------------|
---------------------------------------------------|


  PM                                   
  |-3|  |-----3----|                   
  E  S  E  E  Q    Q    E  E   Q.      
--------------------------------------|
--2--------2--0----L----0-------------|
--1-----------------------------------|
-----4p-2-----------------------------|
--------------------------------------|
---------------------------4b--4------|


       PM                                                          <     
       |--3--|  |--3--|  |---3--|  |---3--|                              
  Q    E  E  E  E  E  E  E   E  E  E   E  E     W                  Q     
---------------------------------------------|-------------------<>9----|
---------------------------------------------|--------------------------|
---------------------------------------------|--------------------------|
---------------------------------------------|--------------------------|
---------------------------------------------|--4------------------L----|
--L----4--4--4--2--2--2--4/--7--7--7/--9--9--|--------------------------|


                                     >                
  H.           H           Q    Q    Q    Q    Q      
--L---------------------|-------0----0---------------|
------------------------|--4---------4----2----------|
------------------------|--4-------------------1h----|
------------------------|----------------------------|
--L---------------------|----------------------------|
------------------------|----------------------------|


  >                            >                           
  Q    Q    Q    Q    E  E     Q    E  E  Q    Q    Q      
-----------------0----------|-------0---------------------|
-------0----2---------2-----|--4----------4----2----------|
----------------------------|-----------------------1h----|
--4-------------------------|-----------------------------|
----------------------------|-----------------------------|
----------------------------|-----------------------------|


  >                            >                          
  Q    Q    Q    Q    E  E     Q    E  E  Q    Q    Q     
-----------------0----------|-------0--------------------|
-------0----2---------2-----|--4----------4----2---------|
----------------------------|-----------------------1----|
--4-------------------------|----------------------------|
----------------------------|----------------------------|
----------------------------|----------------------------|


  >                           >                         
  Q    Q    Q    Q    Q       Q    Q    Q    Q    Q     
-----------------0---------|-------0-------------------|
-------0----2---------2----|--4---------4----2---------|
---------------------------|----------------------1----|
--4------------------------|---------------------------|
---------------------------|---------------------------|
---------------------------|---------------------------|


  >                      >                                      >        
                                    |-3|    |-3|           |-3|    |-3|  
  Q    Q    Q    Q    E  S  S    E  E  S E  E  S S  S Q    E  S E  E  S  
-----------------0------------|-----------------------------------------|
-------0----2---------2-------|--0--0----0--0----2b-------------0--0----|
------------------------------|--------1-------1--------------1-------1-|
--4----------------------4h-6-|----------------------------4------------|
------------------------------|-----------------------------------------|
------------------------------|-----------------------------------------|


                        >                                                
                                             3         |--3--|           
  E  S S E  E   Q    E  Q.           Q    E  Q.        E  E  E  E  Q     
------------2b--2-----------------|-------------------------------------|
--0--0---0------2-------2pbr------|--L-------2pbr------0--2--2--0--L----|
-------1----------------1pbr------|--L-------1pbr-----------------------|
----------------------------------|-----------------------------4--L----|
----------------------------------|-------------------------------------|
----------------------------------|-------------------------------------|


     >       \4      >            
                     |-3|         
  E  E  Q    Q    E  E  S E  S S  
---------------------------------|
-----0--0----4------------0--0---|
--------8----4----------1------1-|
-----4--4----4-------4-----------|
---------------------------------|
---------------------------------|


     |-3| |----7---| 7  ---11  11 11 11---|-3| 3         
  E  E  S S  S S S S E  E  E   T  T  T E  E  S S S S E   
--------------------------------------------------------|
--0--0----2b-2-4-2-4-2--0--0b--2b-2p-0-2--2--2-0--------|
--------1-----------------------------------------------|
--4----------------------------------------------4-2-4--|
--------------------------------------------------------|
--------------------------------------------------------|


         |3|      |--3--|  |----3---|            
  S S E  S E  S S E  E  E  E   E  S S  S T T E   
---------------------2--------------------------|
-----------0--0---------4--2b--2--0-2p-0-0---0--|
----------------1--------------------------1----|
--L---4--6--------------------------------------|
------------------------------------------------|
------------------------------------------------|


  >            >       >                        >         >                  
  |--3-|               |----3---|          |--3-|                            
  Q    E  Q    E   E   S  S  E  E  Q       Q    E  Q.     E   Q     Q        
----------------------------------------|--------------------------16pbr----|
----------------------------------------|-----------------------------------|
----------------------------------------|-----------------------------------|
--4----4--1----4p--1h--4p-1h-4----------|-----------------------------------|
--------------------------------2--L----|--2----0--L------2b--L-------------|
----------------------------------------|-----------------------------------|


                   >                  >     
     |-3|    |-3|       |-3-|         |-3|  
  E  E  S E  E  S  E    E   S Q    E  E  S  
-------------------------------------------|
-------------------------------------------|
-------------------------------------------|
------------------(4)--(4)-----------------|
----------2--2-----2----2------------------|
-----2--4-------4-----------4-9-------2--4-|


                                                     >                
     |-3| |--3--|  |--3--|                      |--3-|                
  E  E  S E  E  E  Q     E  Q    E   E     Q    Q    E  H.            
----------------------------------------|----------------------------|
-------------------2b----4-------0b-----|------------4--2------------|
----------------------------------------|------------2--1------------|
---------------------------------4b--4--|--L-------------------------|
--2--2----2--2-----0b-------4-----------|----------------------------|
--------4----------------4--2-----------|----------------------------|


             >                                                
  |--3-|                       |-3|                           
  Q    E  E  E  S S E  Q    E  E  S    W                Q     
------------------------------------|------------------------|
--L----0-----0----0-2--L----L--0----|--0----------------L----|
--L-----------------1--L----L-------|------------------------|
-------4-----4----4------------4--4-|--L----------------L----|
------------------------------------|------------------------|
------------------------------------|------------------------|


  W                Q       W                Q       W                Q     
------------------------|------------------------|------------------------|
--L----------------L----|------------------------|------------------------|
------------------------|------------------------|------------------------|
--L----------------L----|------------------------|------------------------|
------------------------|------------------------|------------------------|
------------------------|------------------------|------------------------|


  W                Q              
------------------------|-------||
------------------------|-------||
------------------------|-------||
------------------------|-------||
------------------------|-------||
------------------------|-------||




Duration Legend
---------------
W - whole
H - half
Q - quarter
E - 8th
S - 16th
T - 32nd
X - 64th
. - note dotted
|-n-|  - n-tuplets


Tablature Legend
----------------
L - tied note
x - dead note
g - grace note
(n) - ghost note
> - accentuded note
NH - natural harmonic
AH - artificial harmonic
TH - tapped harmonic
SH - semi harmonic
PH - pitch harmonic
h - hammer on
p - pull off
b - bend
br - bendRelease
pb - preBend
pbr - preBendRelease
brb - bendReleaseBend
\n/ - tremolo bar dip
\n - tremolo bar dive
-/n - tremolo bar Release up
/n\ - tremolo bar inverted dip
/n - tremolo bar return
-\n - tremolo bar Release down
S - shift slide
s - legato slide
/ -  slide into from below or out of upwards
\ -  slide into from above or out of downwards
~ - vibrato
W - wide vibrato
tr - trill
TP - tremolo picking
T - tapping
S - slap
P - pop
< - fade in
^ - brush up
v - brush down
Добавлено: 07.04.2012
Другие материалы по этой песне:

Страница создана 07.04.2012
http://primanota.ru/frank-zappa/the-deathless-horsie-chords.htm
Привет, Гость.
Предлагаем пройти революционный курс по гитаре.
Подарок от PrimaNota.Ru, забирай!