PrimaNota.ru - самый крупный в мире бесплатный архив песенных текстов, аккордов, табулатур и нот


Frank Zappa - TeenAge Prostitute - текст песни, таба, видео

Регистрация Запомнить меня
Войти через:  Facebook Google Twitter Vk Yandex Mail.ru

Frank Zappa - TeenAge Prostitute - текст песни, таба, видео

Печатать
Просмотров: 51
Новый альбом группы 'Черный Кузнец' по культовому сериалу 'Сверхъестественное'!
[Intro]

e|-------------------|
B|-------------------|
G|-------------------|
D|-------------------|
A|-------------------|
E|--0-0-0-0-0-0-0-0--|


[Verse]

e|--------------------------------------------------------|
B|--------------------------------------------------------|
G|--9-8-8-9-8-----------------9-8-8-9-8-------------------|
D|------------10---5-5--4--3------------10---5-5--4--3----|
A|-----------------3-3--2--1-----------------3-3--2--1----|
E|--------------------------------------------------------|

e|--------------------------------------------------|
B|--------------------------------------------------|
G|--9-8-8-9-8----------------------7-7-/12-12--11---|
D|------------10---5-5--4--3---7-7------------------|
A|-----------------3-3--2--1------------------------|
E|--------------------------------------------------|


[Bridge]

e|------------------------------------------------------------------------------------|
B|------------------------------------------------------------------------------------|
G|-----------------------------6---6-7-7-6-5----9h10p9-8h9p8-7h8p7-6h7p6-5h6p5-4h5p4--|
D|------------------------------------------------------------------------------------|
A|------------------------------------------------------------------------------------|
E|--3-3-2-3--5-5-3-5--6-6-5-6---------------------------------------------------------|

e|----------------------------------------------|
B|----------------------------------------------|
G|----------------------------------------------|
D|----------------------------------------------|
A|----------------------------------------------|
E|--4--4-5-5-4-3--3--3-4-4-3-2--2--2-3-3-2-1----|

e|------------------------------------------------------------------|
B|------------------------------------------------------------------|
G|------------------------------------------------------------------|
D|------------------------------------------------------------------|
A|------------------------------------------------------------------|
E|--0--0-3-0-5-0-3-0--0-3-0-5-0-3-0--0-3-0-5-0-3-0--0-3-0-5-0-3-0---|

e|------------------------------------------------------------------|
B|------------------------------------------------------------------|
G|------------------------------------------------------------------|
D|------------------------------------------------------------------|
A|------------------------------------------------------------------|
E|--0--0-3-0-5-0-3-0--0-3-0-5-0-3-0--0-3-0-5-0-3-0--0-3-0-5-0-3-0---|


[Verse]

e|--------------------------------------------------------|
B|--------------------------------------------------------|
G|--9-8-8-9-8-----------------9-8-8-9-8-------------------|
D|------------10---5-5--4--3------------10---5-5--4--3----|
A|-----------------3-3--2--1-----------------3-3--2--1----|
E|--------------------------------------------------------|

e|--------------------------------------------------|
B|--------------------------------------------------|
G|--9-8-8-9-8----------------------7-7-/12-12--11---|
D|------------10---5-5--4--3---7-7------------------|
A|-----------------3-3--2--1------------------------|
E|--------------------------------------------------|


[Bridge]

e|------------------------------------------------------------------------------------|
B|------------------------------------------------------------------------------------|
G|-----------------------------6---6-7-7-6-5----9h10p9-8h9p8-7h8p7-6h7p6-5h6p5-4h5p4--|
D|--5-5-4-5--7-7-5-7--8-8-7-8---------------------------------------------------------|
A|------------------------------------------------------------------------------------|
E|------------------------------------------------------------------------------------|

e|----------------------------------------------|
B|----------------------------------------------|
G|----------------------------------------------|
D|----------------------------------------------|
A|----------------------------------------------|
E|--4--4-5-5-4-3--3--3-4-4-3-2--2--2-3-3-2-1----|

e|------------------------------------------------------------------|
B|------------------------------------------------------------------|
G|------------------------------------------------------------------|
D|------------------------------------------------------------------|
A|------------------------------------------------------------------|
E|--0--0-3-0-5-0-3-0--0-3-0-5-0-3-0--0-3-0-5-0-3-0--0-3-0-5-0-3-0---|

e|------------------------------------------------------------------|
B|------------------------------------------------------------------|
G|------------------------------------------------------------------|
D|------------------------------------------------------------------|
A|------------------------------------------------------------------|
E|--0--0-3-0-5-0-3-0--0-3-0-5-0-3-0--0-3-0-5-0-3-0--0-3-0-5-0-3-0---|

No guitar til 1:22

e|--------------------------------------------|
B|--------------------------------------------|
G|-13-13-12-12-11-11--13-13-12-12-11-11-------|
D|--------------------------------------------|
A|--------------------------------------------|
E|--------------------------------------------|


[Verse]

e|--------------------------------------------------------|
B|--------------------------------------------------------|
G|--9-8-8-9-8-----------------9-8-8-9-8-------------------|
D|------------10---5-5--4--3------------10---5-5--4--3----|
A|-----------------3-3--2--1-----------------3-3--2--1----|
E|--------------------------------------------------------|

e|--------------------------------------------------|
B|--------------------------------------------------|
G|--9-8-8-9-8----------------------7-7-/12-12--11---|
D|------------10---5-5--4--3---7-7------------------|
A|-----------------3-3--2--1------------------------|
E|--------------------------------------------------|


[Bridge]

e|------------------------------------------------------------------------------------|
B|------------------------------------------------------------------------------------|
G|-----------------------------6---6-7-7-6-5----9h10p9-8h9p8-7h8p7-6h7p6-5h6p5-4h5p4--|
D|------------------------------------------------------------------------------------|
A|------------------------------------------------------------------------------------|
E|--3-3-2-3--5-5-3-5--6-6-5-6---------------------------------------------------------|

e|----------------------------------------------|
B|----------------------------------------------|
G|----------------------------------------------|
D|----------------------------------------------|
A|----------------------------------------------|
E|--4--4-5-5-4-3--3--3-4-4-3-2--2--2-3-3-2-1----|

e|------------------------------------------------------------------|
B|------------------------------------------------------------------|
G|------------------------------------------------------------------|
D|------------------------------------------------------------------|
A|------------------------------------------------------------------|
E|--0--0-3-0-5-0-3-0--0-3-0-5-0-3-0--0-3-0-5-0-3-0--0-3-0-5-0-3-0---|

e|------------------------------------------------------------------|
B|------------------------------------------------------------------|
G|------------------------------------------------------------------|
D|------------------------------------------------------------------|
A|------------------------------------------------------------------|
E|--0--0-3-0-5-0-3-0--0-3-0-5-0-3-0--0-3-0-5-0-3-0--0-3-0-5-0-3-0---|


[Verse]

e|--------------------------------------------------------|
B|--------------------------------------------------------|
G|--9-8-8-9-8-----------------9-8-8-9-8-------------------|
D|------------10---5-5--4--3------------10---5-5--4--3----|
A|-----------------3-3--2--1-----------------3-3--2--1----|
E|--------------------------------------------------------|
     
e|--------------------------------------------------|
B|--------------------------------------------------|
G|--9-8-8-9-8----------------------7-7-/12-12--11---|
D|------------10---5-5--4--3---7-7------------------|
A|-----------------3-3--2--1------------------------|
E|--------------------------------------------------|


*************************

| /  slide up
| \  slide down
| h  hammer-on
| p  pull-off
| ~  vibrato
| +  harmonic
| x  Mute note

*************************
Добавлено: 12.03.2018
Другие материалы по этой песне:
  • Аккорды и текст

Страница создана 23.12.2013
http://primanota.ru/frank-zappa/teenage-prostitute-chords.htm
Привет, Гость.
Предлагаем пройти революционный курс по гитаре.
Подарок от PrimaNota.Ru, забирай!