PrimaNota.ru - самый крупный в мире бесплатный архив песенных текстов, аккордов, табулатур и нот


Frank Zappa - San Berdino - текст песни, таба, бас-таба, видео

Регистрация Запомнить меня
Войти через:  Facebook Google Twitter Vk Yandex Mail.ru

Frank Zappa - San Berdino - текст песни, таба, бас-таба, видео

Печатать
Просмотров: 144
Уроки эстрадного вокала в Санкт-Петербурге
-----------------------------------------------------------------------------
                          SAN BER'DINO - Frank Zappa
-----------------------------------------------------------------------------
Tabbed by: kennezar (Kenneth Dale Harris IV)
Email: kenny@kdharris.net
Tuning: Standard


Beginning Riff: (you have to really bend the strings to make it sound good.)
e|---------------------------------|----------------------------------------|
B|---------------------------------|----------------------------------------|
G|---------------------------------|----------------------------------------|
D|-------2--5-4~-------2-----------|------2--5-4~------2-----2------2-------|
A|0-3-4----------0-3-4----0-3------|0-3-4--------0-3-4--0-3-4--0-3-4--0-3---|
E|-----------------------------3^5-|-------------------------------------3^5|
Verse:
e|------------------------------------|
B|-2-2-2---4--4-4---5-5-5---4--2~-----|
G|-2-2-2---4--4-4---5-5-5---4--2~-----|
D|-2-2-2---4--4-4---5-5-5---4--2~-----|
A|-0-0-0---2--2-2---3-3-3---2--0~-----|
E|------------------------------------|
Fill:
e|-------------------------------------------|
B|-2-2---------------------------------------|
G|-2-2-----------7~-5-7-5--------------------|
D|-2-2-------5-7----------7-5----------------|
A|-0-0---5-7------------------7-5-3----------|
E|----------------------------------3-5~-----|
Verse:
Bridge:
e|-------------|--12p10-------------------10h12p10~~~-|
B|--7-7-7--5~--|--------13p10------10h13--------------|
G|--7-7-7--5~--|--------------9h12--------------------|
D|--7-7-7--5~--|--------------------------------------|
A|--5-5-5--3~--|--------------------------------------|
E|-------------|--------------------------------------|

e|------------------------------------|
B|-----2-----2-----2-2~---------------|
G|-----2-----2-----2-2~---------------|
D|-----2-----2-----2-2~---------------|
A|-----0-----0-----0-0~---------------|
E|-3-5---3-5---3-5--------------------|

e|----------------------------------------------------------|
B|----------------------------------------------------------|
G|---5-7p5---5-5-7p5---5-5-7p5---5-5-7p5---5-5-7p5----------|
D|---------7---------7---------7---------7---------7\4~~~---|
A|----------------------------------------------------------|
E|----------------------------------------------------------|
Repeat as needed.
e|------------------------------------------------------|
B|---10p8---8~------------------------------------------|
G|--------9----7-5-7-7-7p5------------------------------|
D|-------------------------7------------------7-7h9~~~--|
A|----------------------------------3-5-5-5/7-----------|
E|----------------------------3-5-5---------------------|

e|----------------------------------|Play this for a while.
B|--9-9-9-9-9-----------------------|
G|--9-9-9-9-9-----------------------|
D|--9-9-9-9-9-----------------------|
A|--7-7-7-7-7-----------------------|
E|--0-0-0-0-0-----------------------|

e|--------------------------------|
B|--------------------------------|
G|--------------------------------|
D|--------------------------------|
A|-----0-3-3-0h3p0-------0-3-3-0--|
E|--0h3-3---------0~--0h3-3-------|

e|-------------------------------------------------------|
B|--9-9-9-9---------11-11-11-11--------------------------|
G|--9-9-9-9---------11-11-11-11--------------------------|
D|--9-9-9-9---------11-11-11-11--11-11-11-11-------------|
A|--7-7-7-7---------9--9--9--9---11-11-11-11-------------|
E|--0-0-0-0-etc.----0--0--0--0---9--9--9--9--------------|
This is the end part and its just a bunch of repetition. Good spot to fool around on.
e|--------------------------------------------------|
B|-2-2-2-2------------------------------------------|
G|-2-2-2-2-------------------------2~---------------|
D|-2-2-2-2------------------2--2h4------------------|
A|-0-0-0-0----------0-0-3h4--4----------------------|
E|---------3h4--------------------------------------|


| /  slide up
| \  slide down
| h  hammer-on
| p  pull-off
| ~  vibrato
| +  harmonic
| x  Mute note
=============================================================================
Добавлено: 09.05.2012
Другие материалы по этой песне:

Страница создана 09.05.2012
http://primanota.ru/frank-zappa/san-berdino-chords.htm
Привет, Гость.
Предлагаем пройти революционный курс по гитаре.
Подарок от PrimaNota.Ru, забирай!