PrimaNota.ru - самый крупный в мире бесплатный архив песенных текстов, аккордов, табулатур и нот


Frank Zappa - Pound For A Brown - текст песни, таба, видео

Регистрация Запомнить меня
Войти через:  Facebook Google Twitter Vk Yandex Mail.ru

Frank Zappa - Pound For A Brown - текст песни, таба, видео

Печатать
Просмотров: 93
Track 1
     E  E  E  E  E  E   E  E  E  E  E  E  E   E   
E||----------------------------------------------|
B||----------------------------------------------|
G||--------8--------8--10--------8--------8--10--|
D||-----8--------8------------8--------8---------|
A||--8--------8------------8--------8------------|
E||----------------------------------------------|
 
 
  E  E  E  E  E  E   E  E  E  E  E  E  E   E   
----------------------------------------------|
----------------------------------------------|
--------8--------8--10--------8--------8--10--|
-----8--------8------------8--------8---------|
--8--------8------------8--------8------------|
----------------------------------------------|
 
 
  E  E  E  E  E  E   E  E  E  E  E  E  E   E   
----------------------------------------------|
----------------------------------------------|
--------8--------8--10--------8--------8--10--|
-----8--------8------------8--------8---------|
--8--------8------------8--------8------------|
----------------------------------------------|
 
 
  E  E  E  E  E  E   E  E  E  E  E  E  E   E   
----------------------------------------------|
----------------------------------------------|
--------8--------8--10--------8--------8--10--|
-----8--------8------------8--------8---------|
--8--------8------------8--------8------------|
----------------------------------------------|
 
 
   H.            Q     Q     Q.      S  S     W.               Q     
--11------------10---------------------13-|-------------------------|
------------------------------------------|--13----------------L----|
----------------------12----12------12----|-------------------------|
------------------------------------------|-------------------------|
------------------------------------------|-------------------------|
------------------------------------------|-------------------------|
 
 
   H.            Q     Q     Q.      S  S     H.           E   E   
--11------------10---------------------13-|-----------------------|
------------------------------------------|--13------------L--10--|
----------------------12----12------12----|-----------------------|
------------------------------------------|-----------------------|
------------------------------------------|-----------------------|
------------------------------------------|-----------------------|
 
 
  E   E   E  E   E   E   E      E  E   E   E   E   Q        Q     Q    E  E   
----------------------------|------8------11------------|--13----------------|
----------------------------|--11-------------11--13----|--------11----------|
--9--12------9--------------|---------10----------------|--------------8-----|
---------10---------12--13--|---------------------------|-----------------8--|
----------------12----------|---------------------------|--------------------|
----------------------------|---------------------------|--------------------|
 
 
  E  E  E  E  E  E   E  E  E  E  E  E  E   E   
----------------------------------------------|
----------------------------------------------|
--------8--------8--10--------8--------8--10--|
-----8--------8------------8--------8---------|
--8--------8------------8--------8------------|
----------------------------------------------|
 
 
  E  E  E  E  E  E   E  E  E  E  E  E  E   E   
----------------------------------------------|
----------------------------------------------|
--------8--------8--10--------8--------8--10--|
-----8--------8------------8--------8---------|
--8--------8------------8--------8------------|
----------------------------------------------|
 
 
   H.            Q     Q     Q.      S  S     W.               Q     
--11------------10---------------------13-|-------------------------|
------------------------------------------|--13----------------L----|
----------------------12----12------12----|-------------------------|
------------------------------------------|-------------------------|
------------------------------------------|-------------------------|
------------------------------------------|-------------------------|
 
 
   H.            Q     Q     Q.      S  S     H.           E   E   
--11------------10---------------------13-|-----------------------|
------------------------------------------|--13------------L--10--|
----------------------12----12------12----|-----------------------|
------------------------------------------|-----------------------|
------------------------------------------|-----------------------|
------------------------------------------|-----------------------|
 
 
  E   E   E  E   E   E   E      E  E   E   E   E   Q     
----------------------------|------8------11------------|
----------------------------|--11-------------11--13----|
--9--12------9--------------|---------10----------------|
---------10---------12--13--|---------------------------|
----------------12----------|---------------------------|
----------------------------|---------------------------|
 
 
   Q     E   E   E   E      E   E   E   E   E   E   E   E   
--13----11--10------11--|--------------15--14------13--12--|
----------------13------|--11--10--------------15----------|
------------------------|----------10----------------------|
------------------------|----------------------------------|
------------------------|----------------------------------|
------------------------|----------------------------------|
 
 
   E   E   E   E   E   E   E   E      Q     E   E   E   E  E   E   
----------------------13--12--10--|--------10---------------------|
--13--12--11----------------------|--13--------13--10--12-----12--|
--------------11--10--------------|-------------------------------|
----------------------------------|-------------------------------|
----------------------------------|-------------------------------|
----------------------------------|-------------------------------|
 
 
   E   E   Q     Q    E   E      E   E   E  E   Q     E   E   
--13--10--12-----------------|-----------------12----10--13--|
----------------13-------12--|--10--12--13-------------------|
-----------------------------|-------------------------------|
-----------------------------|-------------------------------|
-----------------------------|-------------------------------|
-----------------------------|-------------------------------|
 
 
   E   E   E   E   E   E   Q        E   E   E   E   E   E  E   E   
--12--13--12--10----------------|--12------13-----------------12--|
------------------13--12--13----|------13------13--10--12---------|
--------------------------------|---------------------------------|
--------------------------------|---------------------------------|
--------------------------------|---------------------------------|
--------------------------------|---------------------------------|
 
 
   E   E  E   E   E  E   E   E      E   E   E   E   E   E   Q     
--12--12-----12--12-----12--13--|--12--10------------------------|
--------------------------------|----------13--12--10------------|
--------------------------------|----------------------12--10----|
--------------------------------|--------------------------------|
--------------------------------|--------------------------------|
--------------------------------|--------------------------------|
 
 
   E   E  E   E   E   E   E  E     E   E  E   E  E   E   E  E      E  Q.      
-------------12--12--12--12-----|-----12----------------12-----|--13---------|
--------------------------------|------------12-----12---------|-------------|
--12--10------------------------|------------------------------|-------------|
--------------------------------|------------------------------|-------------|
--------------------------------|------------------------------|-------------|
--------------------------------|------------------------------|-------------|
 
 
   Q    E   E   E   E   E   E     E   E   E   Q     Q     E   
-------------------------------|-------------12--------------|
-----------10--12--13--12--10--|---------10--------------10--|
--10----9----------------------|-----------------------------|
-------------------------------|-----12------------12--------|
-------------------------------|-----------------------------|
-------------------------------|-----------------------------|
 
 
   W                   W                 
--12----------------|--L----------------|
--------------------|-------------------|
--------------------|-------------------|
--------------------|-------------------|
--------------------|-------------------|
--------------------|-------------------|
 
 
  E  E  E  E  E  E   E  E  E  E  E  E  E   E   
----------------------------------------------|
----------------------------------------------|
--------8--------8--10--------8--------8--10--|
-----8--------8------------8--------8---------|
--8--------8------------8--------8------------|
----------------------------------------------|
 
 
  E  E  E  E  E  E   E  E  E  E  E  E  E   E   
----------------------------------------------|
----------------------------------------------|
--------8--------8--10--------8--------8--10--|
-----8--------8------------8--------8---------|
--8--------8------------8--------8------------|
----------------------------------------------|
 
 
  E  E  E  E  E  E   E  E  E  E  E  E  E   E   
----------------------------------------------|
----------------------------------------------|
--------8--------8--10--------8--------8--10--|
-----8--------8------------8--------8---------|
--8--------8------------8--------8------------|
----------------------------------------------|
 
 
  E  E  E  E  E  E   E  E  E  E  E  E  E   E   
----------------------------------------------|
----------------------------------------------|
--------8--------8--10--------8--------8--10--|
-----8--------8------------8--------8---------|
--8--------8------------8--------8------------|
----------------------------------------------|
 
 
   H.            Q     Q     Q.      S  S     W.               Q     
--11------------10---------------------13-|-------------------------|
------------------------------------------|--13----------------L----|
----------------------12----12------12----|-------------------------|
------------------------------------------|-------------------------|
------------------------------------------|-------------------------|
------------------------------------------|-------------------------|
 
 
   H.            Q     Q     Q.      S  S     H.           E   E   
--11------------10---------------------13-|-----------------------|
------------------------------------------|--13------------L--10--|
----------------------12----12------12----|-----------------------|
------------------------------------------|-----------------------|
------------------------------------------|-----------------------|
------------------------------------------|-----------------------|
 
 
  E   E   E  E   E   E   E      E  E   E   E   E   Q        Q     Q    E  E    
----------------------------|------8------11------------|--13----------------||
----------------------------|--11-------------11--13----|--------11----------||
--9--12------9--------------|---------10----------------|--------------8-----||
---------10---------12--13--|---------------------------|-----------------8--||
----------------12----------|---------------------------|--------------------||
----------------------------|---------------------------|--------------------||
 
 
 
 
Duration Legend
---------------
W - whole
H - half
Q - quarter
E - 8th
S - 16th
T - 32nd
X - 64th
. - note dotted
|-n-|  - n-tuplets
 
 
Tablature Legend
----------------
L - tied note
x - dead note
g - grace note
(n) - ghost note
> - accentuded note
NH - natural harmonic
AH - artificial harmonic
TH - tapped harmonic
SH - semi harmonic
PH - pitch harmonic
h - hammer on
p - pull off
b - bend
br - bendRelease
pb - preBend
pbr - preBendRelease
brb - bendReleaseBend
\n/ - tremolo bar dip
\n - tremolo bar dive
-/n - tremolo bar Release up
/n\ - tremolo bar inverted dip
/n - tremolo bar return
-\n - tremolo bar Release down
S - shift slide
s - legato slide
/ -  slide into from below or out of upwards
\ -  slide into from above or out of downwards
~ - vibrato
W - wide vibrato
tr - tril'
TP - tremolo picking
T - tapping
S - slap
P - pop
< - fade in
^ - brush up
v - brush down
Добавлено: 27.05.2012
Другие материалы по этой песне:

Страница создана 27.05.2012
http://primanota.ru/frank-zappa/pound-for-a-brown-chords.htm
Привет, Гость.
Предлагаем пройти революционный курс по гитаре.
Подарок от PrimaNota.Ru, забирай!