PrimaNota.ru - самый крупный в мире бесплатный архив песенных текстов, аккордов, табулатур и нот


Frank Zappa - Marquesons Chicken - аккорды и текст, таба, видео

Регистрация Запомнить меня
Войти через:  Facebook Google Twitter Vk Yandex Mail.ru

Frank Zappa - Marquesons Chicken - аккорды и текст, таба, видео

Печатать
Просмотров: 85
Marquesons Chicken
Frank Zappa
3x
||-----------------|----------------------------||----------------|-----
||--13p12h13-13p12-|-12h13p12-------------------||-13p12h13-13p12-|-----
||----------------|----------14----13---------||----------------|-----
||----------------|-------------15----13-12---||----------------|-----
||-----------------|----------------------------||----------------|-----
||-----------------|----------------------------||----------------|-----
5/16 2/4 5/16

3x
--------------------------||-||-------------------------------||--------
13p12h13------------------||-||-------------------------------||--------
---------14---------------||-||-----------8-----------------||--------
------------15-13-13-12---||-||-------5-6---6-5-------------||--------
--------------------------||-||----2-3-----------3-2-3-2-3-2--||--------
--------------------------||-||--0----------------------------||--------
2/4 7/8

Unison Bends
------------------------------|--17-------14-------12---11--------|-----
------------------------------|--20-------17-------15---13---12---|-----
----------8-----------------0-|------------------------------14---|-----
------5-6---6-5-----------2---|-----------------------------------|-----
--2-3-----------3-2-3-2-3-----|-----------------------------------|-----
0-----------------------------|-----------------------------------|-----
4/4


------------------------||---------------------------------------||-||--
10-------5-------8------||---------------------------------------||-||--
12-------7-------10-----||-------------------------------------||-||--
------------------------||-------------------------------------||-||--
------------------------||--6-6-6-6---7---9---6-6-6-6---9---9----||-||--
------------------------||---------------------------------------||-||--
9/8


----------------------------|---|----------------------------|---|------
----------------------------|---|----------------------------|---|------
----------9-10-9-10-9-------|---|------------10----10--------|---|------
-------10-------------10----|-%-|-------7-10----10----10-7---|-%-|------
----10-------------------10-|---|-----8--------------------8-|---|------
(8)-------------------------|---|-(8)------------------------|---|------
5/8


----------------------|---|---------7-8-7-8-7-----|---|-----------------
----------------------|---|-------8-----------8---|---|-----------------
----------7---7-------|---|-----7---------------7-|---|-----------------
------4-5---5---5-4---|-%-|-----------------------|-%-|-----------------
----7---------------7-|---|-(6)-------------------|---|-----------------
(0)-------------------|---|-----------------------|---|-----------------


4x
-----------8---8--------||-------------7---7--------||----------------||
---------8---8---8------||---------------7---7------||-- Play the ----||
-------9-----------9----||--------7-9---------9-7-||-- intro -------||
----10---------------10-||-----10-----------------||-- riff again --||
------------------------||--------------------------||----------------||
(9)---------------------||--(8)---------------------||----------------||



--------------------------|---|-------------------------|---|-----------
-----------9---9----------|---|-----------9---9---------|---|-----------
-----6-7-8---8---8-7-6----|---|-----6-7-8---8---8-7-6---|---|-----------
--10-------------------10-|-%-|---9-------------------9-|-%-|-----------
8-------------------------|---|-7-----------------------|---|-----------
--------------------------|---|-------------------------|---|-----------
3/4

4x
||---------------------------||--------------8----10-9---7---|---|------
||------------9---9----------||------------8---10------9---7-|---|------
||-----6-7-8---8---8-7-6---||-------9-10-------------------|---|------
||---8-------------------8-||------------------------------|-%-|------
||--6------------------------||----12------------------------|---|------
||---------------------------||-10---------------------------|---|------



-------------------------11----|---|--------------------7-6-10-9-|------
----------8-7-10-9-12-11----12-|---|-----------8-7-10-9----------|------
-----9-10----------------------|---|------9-10-------------------|------
-------------------------------|-%-|-----------------------------|--%---
--11---------------------------|---|---10------------------------|------
9------------------------------|---|-8---------------------------|------



--|-------------------------|---|-||------------------------------------
--|-----------9---9---------|---|-||------------------------------------
--|-----6-7-8---8---8-7-6---|---|-||------------------------------------
--|-------------------------|-%-|-||------------------------------------
--|---9-------------------7-|---|-||------------------------------------
--|-7-----------------------|---|-||------------------------------------



5-------------3-----------------------------------------||-------------|
5-------------3-------------7-------------8-------------||- Play from -|
6-------------4-------------7-------------8-------------||- the begin -|
7-------------5-------------7-------------8-------------||- to unison -|
7-------------5-------------5-------------6-------------||- bends -----|
5-------------3-----------------------------------------||-------------|


Ad Infinitum (at least 4-5 minutes)
||-------------------------|----------------------||-----------------|||
||-------------------------|----------------------||- Back to begin -|||
||------------------------|---------------------||- Play to bends -|||
||------------------------|---------------------||- then end ------|||
||-----7-7---4-4---7-4-----|-4-4---0-0---4-0------||-----------------|||
||-------------------------|----------------------||-----------------|||
4/4
Добавлено: 28.09.2013
Другие материалы по этой песне:
  • Аккорды и текст

Страница создана 04.04.2012
http://primanota.ru/frank-zappa/marquesons-chicken-chords.htm
Привет, Гость.
Предлагаем пройти революционный курс по гитаре.
Подарок от PrimaNota.Ru, забирай!