PrimaNota.ru - самый крупный в мире бесплатный архив песенных текстов, аккордов, табулатур и нот


Frank Zappa - Latex Solar Beef - текст песни, бас-таба, видео

Регистрация Запомнить меня
Войти через:  Facebook Google Twitter Vk Yandex Mail.ru

Frank Zappa - Latex Solar Beef - текст песни, бас-таба, видео

Печатать
Просмотров: 136
Frank Zappa
Latex Solar Beef
White Album (Fillmore June 1971)
Tabbed by Joe Rutan (childrenskunk@ameritech.net)

Main Riff       Intro Only
G:-------------:----------
D:----------4--:----------
A:---------7-5-:----------
E:-7-57-57-----:-7-55-----

Ending
G:-------------
D:-------------
A:----5r-7r----
E:-7r-------8r-

G:-------------------------
D:-------------------------
A:------5-55---------------
E:-5-55------6-66-88r-5-55-


**The r's are for repeat. Each in varied numbers/rhythms.

     
Добавлено: 04.10.2013
Другие материалы по этой песне:
  • Аккорды и текст

Страница создана 26.08.2013
http://primanota.ru/frank-zappa/latex-solar-beef-chords.htm
Привет, Гость.
Предлагаем пройти революционный курс по гитаре.
Подарок от PrimaNota.Ru, забирай!