PrimaNota.ru - самый крупный в мире бесплатный архив песенных текстов, аккордов, табулатур и нот


Frank Zappa - King Kong Itself - бас-таба, видео

Регистрация Запомнить меня
Войти через:  Facebook Google Twitter Vk Yandex Mail.ru

Frank Zappa - King Kong Itself - бас-таба, видео

Печатать
Просмотров: 21
-------------------------------------------------------------------------------
                        King Kong Itself - Frank Zappa
-------------------------------------------------------------------------------
Tabbed by: Jacque
E-mail: imbatman1312@gmail.com

Tuning: Standard

Main Bassline

G|-----------------------------------|
D|-(11)h13--13--13---13-13--13--13---|
A|-----------------------------------| Repeat Until 0:22
E|-----------------------------------|

0:22

G|------------------11-11---13-13----|
D|--13-13---15-15--------------------|
A|-----------------------------------| X4 Then back to main bassline
E|-----------------------------------|

0:29

G|-----------------------------------|
D|-(11)h13--13--13---13-13--13--13---|
A|-----------------------------------| Repeat Until 0:43
E|-----------------------------------|

0:43

G|----------------------------------|
D|--13-13---11-11---10-10-----------|
A|--------------------------13-13---| Repeat to finish (0:51)
E|----------------------------------|


| () ghost note
| /  slide up
| \  slide down
| h  hammer-on
| p  pull-off
| ~  vibrato
| +  harmonic
| x  Mute note
===============================================================================
Добавлено: 08.02.2016
Другие материалы по этой песне:

Страница создана 23.07.2012
http://primanota.ru/frank-zappa/king-kong-itself-chords.htm
Привет, Гость.
Предлагаем пройти революционный курс по гитаре.
Подарок от PrimaNota.Ru, забирай!