PrimaNota.ru - самый крупный в мире бесплатный архив песенных текстов, аккордов, табулатур и нот


Frank Zappa - Fine Girl - текст песни, таба, бас-таба, видео

Регистрация Запомнить меня
Войти через:  Facebook Google Twitter Vk Yandex Mail.ru

Frank Zappa - Fine Girl - текст песни, таба, бас-таба, видео

Печатать
Просмотров: 133
Gtr I (E A D G B E) - 'Untitled'
Gtr II (E A D G B E) - 'Untitled'
Gtr III (E A D G B E) - 'Untitled'
Gtr IV (E A D G B E) - 'Untitled'
Gtr V (E A D G B E) - 'Untitled'
Gtr VI (E A D G B E) - 'Untitled'

  Q=80
 4/4
  Gtr IGtr I
  Q     E   E    E   E   E   E    E
|-------5--------5-------5--------5-----|
|-------5--------5-------7--------7-----|
|-------5--------5-------7--------7-----|
|---------------------------------------|
|-0/------------------------------------|
|---------------------------------------|
|
|      Gtr III
| E  E  S S S S  S S S S S S S S  S S E
|---------------------------------------|
|---------------------------------------|
|------/9---7-------------------------7-|
|---------------10---9---7---9---10-----|
|---------------------------------------|
|---------------------------------------|
|
|      Gtr V
| E  E  S S S S  S S S S S S S S  S S E
|---------------------------------------|
|---------------------------------------|
|---------------------------------------|
|---------------------------------------|
|-------7---5-------------------------5-|
|----------------8---7---5---7----8-----|


     E   E    E   E   E   E    E       3x
||---5--------5-------5--------5-------||
||o--5--------5-------7--------7------o||
||---5--------5-------7--------7-------||
||-------------------------------------||
||o-----------------------------------o||
||-------------------------------------||
|
|    S S S S  S S S S S S S S  S S E   3x
||-------------------------------------||
||o-----------------------------------o||
||--/9---7-------------------------7---||
||-----------10---9---7---9---10-------||
||o-----------------------------------o||
||-------------------------------------||
|
|    S S S S  S S S S S S S S  S S E   3x
||-------------------------------------||
||o-----------------------------------o||
||-------------------------------------||
||-------------------------------------||
||o--7---5-------------------------5--o||
||------------8---7---5---7----8-------||


  Gtr I
  E   E E   E E   E E   E   E   E E   E E   E   E      E
|-x---5-x---5-x---5-x---5-|-x---5-x---5-x---5---x------5-|
|-x---5-x---5-x---7-x---7-|-x---5-x---5-x---7---x------7-|
|-x---5-x---5-x---7-x---7-|-x---5-x---5-x---7---x------7-|
|-------------------------|------------------------------|
|-------------------------|------------------------------|
|-------------------------|------------------------------|
|
| Gtr IV
| E   E E   E S S E E   E   E   E E   E S S S S T T  S E
|-------------------------|------------------------------|
|-------------------------|------------------------------|
|-------------------------|------------------------------|
|-------------------------|-----------------7------------|
|-5-----------5-5---------|-5-----------4h5-----7h9\-5---|
|-------5-----------7---7-|-------5--------------------5-|
|
| Gtr V
| S S E S S E S S E S S S   S S E S S E S S E   S    S E
|-------------------------|------------------------------|
|-------------------------|------------------------------|
|-------------------------|------------------------------|
|-------------------------|------------------------------|
|-5-5---------4h5---5-5---|-5-5---------4h5-----5----5---|
|-------5-5---------------|-------5-5--------------------|


  E   E E   E E   E E   E   E   E E   E
|-x---5-x---5-x---5-x---5-|-x---5-x---5-|
|-x---5-x---5-x---7-x---7-|-x---5-x---5-|
|-x---5-x---5-x---7-x---7-|-x---5-x---5-|
|-------------------------|-------------|
|-------------------------|-------------|
|-------------------------|-------------|
|
| E   E E   E S S E E   E   E   E E   E
|-------------------------|-------------|
|-------------------------|-------------|
|-------------------------|-------------|
|-------------------------|-------------|
|-5-----------5-5---------|-5-----------|
|-------5-----------7---7-|-------5-----|
|
| S S E S S E S S E S S E   S S E S S E
|-------------------------|-------------|
|-------------------------|-------------|
|-------------------------|-------------|
|-------------------------|-------------|
|-5-5---------4h5---5-5---|-5-5---------|
|-------5-5---------------|-------5-5---|


  Gtr II
  T T T T T T T T T T T T S
|-5-5-5---------------------|
|-------7-7-----------------|
|-----------7-5-5-----------|
|-----------------7-5-------|
|---------------------7-5-0-|
|-------------------------5-|


    Gtr I
    E   E E   E E   E E   E
||--x---5-x---5-x---5-x---5-|
||o-x---5-x---5-x---7-x---7-|
||--x---5-x---5-x---7-x---7-|
||--------------------------|
||o-------------------------|
||--------------------------|
|
|   Gtr IV
|   E   E E   E S S E E   E
||--------------------------|
||o-------------------------|
||--------------------------|
||--------------------------|
||o-5-----------5-5---------|
||--------5-----------7---7-|
|
|   Gtr V
|   S S E S S E S S E S S S
||--------------------------|
||o-------------------------|
||--------------------------|
||--------------------------|
||o-5-5---------4h5---5-5---|
||--------5-5---------------|


  E   E E   E E   E   E      E   E   E E   E E   E E   E
|-x---5-x---5-x---5---x------5-|-x---5-x---5-x---5-x---5--||
|-x---5-x---5-x---7---x------7-|-x---5-x---5-x---7-x---7-o||
|-x---5-x---5-x---7---x------7-|-x---5-x---5-x---7-x---7--||
|------------------------------|--------------------------||
|------------------------------|-------------------------o||
|------------------------------|--------------------------||
|
| E   E E   E S S S S T T  S E   E   E E   E S S E E   E
|------------------------------|--------------------------||
|------------------------------|-------------------------o||
|------------------------------|--------------------------||
|-----------------7------------|--------------------------||
|-5-----------4h5-----7h9\-5---|-5-----------5-5---------o||
|-------5--------------------5-|-------5-----------7---7--||
|
| S S E S S E S S E   S    S E   S S E S S E S S E S S E
|------------------------------|--------------------------||
|------------------------------|-------------------------o||
|------------------------------|--------------------------||
|------------------------------|--------------------------||
|-5-5---------4h5-----5----5---|-5-5---------4h5---5-5---o||
|-------5-5--------------------|-------5-5----------------||


  Gtr I
  E   E E   E E   E   E      E   E   E E   E E   E E   E   E   E E   E
|-x---5-x---5-x---5---x------5-|-x---5-x---5-x---5-x---5-|-x---5-x---5--|
|-x---5-x---5-x---7---x------7-|-x---5-x---5-x---7-x---7-|-x---5-x---5--|
|-x---5-x---5-x---7---x------7-|-x---5-x---5-x---7-x---7-|-x---5-x---5--|
|------------------------------|-------------------------|--------------|
|------------------------------|-------------------------|--------------|
|------------------------------|-------------------------|--------------|
|
| Gtr IV
| E   E E   E S S S S T T  S E   E   E E   E S S E E   E   E   E E   E
|------------------------------|-------------------------|--------------|
|------------------------------|-------------------------|--------------|
|------------------------------|-------------------------|--------------|
|-----------------7------------|-------------------------|--------------|
|-5-----------4h5-----7h9\-5---|-5-----------5-5---------|-5------------|
|-------5--------------------5-|-------5-----------7---7-|-------5------|
|
| Gtr V
| S S E S S E S S E   S    S E   S S E S S E S S E S S E   S S E S S E
|------------------------------|-------------------------|--------------|
|------------------------------|-------------------------|--------------|
|------------------------------|-------------------------|--------------|
|------------------------------|-------------------------|--------------|
|-5-5---------4h5-----5----5---|-5-5---------4h5---5-5---|-5-5----------|
|-------5-5--------------------|-------5-5---------------|-------5-5----|


  Gtr II
  T T T T T T T T T T T T S
|-5-5-5---------------------|
|-------7-7-----------------|
|-----------7-5-5-----------|
|-----------------7-5-------|
|---------------------7-5-0-|
|-------------------------5-|


  Gtr I
  E   E E   E E   E E   E   E   E E   E E   E   E      E
|-x---5-x---5-x---5-x---5-|-x---5-x---5-x---5---x------5-|
|-x---5-x---5-x---7-x---7-|-x---5-x---5-x---7---x------7-|
|-x---5-x---5-x---7-x---7-|-x---5-x---5-x---7---x------7-|
|-------------------------|------------------------------|
|-------------------------|------------------------------|
|-------------------------|------------------------------|
|
| Gtr IV
| E   E E   E S S E E   E   E   E E   E S S S S T T  S E
|-------------------------|------------------------------|
|-------------------------|------------------------------|
|-------------------------|------------------------------|
|-------------------------|-----------------7------------|
|-5-----------5-5---------|-5-----------4h5-----7h9\-5---|
|-------5-----------7---7-|-------5--------------------5-|
|
| Gtr V
| S S E S S E S S E S S S   S S E S S E S S E   S    S E
|-------------------------|------------------------------|
|-------------------------|------------------------------|
|-------------------------|------------------------------|
|-------------------------|------------------------------|
|-5-5---------4h5---5-5---|-5-5---------4h5-----5----5---|
|-------5-5---------------|-------5-5--------------------|


  E   E E   E E   E E   E   E   E E   E E     E E     E
|-x---5-x---5-x---5-x---5-|-x---5-x---5-x-----5-x-----5----|
|-x---5-x---5-x---7-x---7-|-x---5-x---5-x-----7-x-----7----|
|-x---5-x---5-x---7-x---7-|-x---5-x---5-x-----7-x-----7----|
|-------------------------|--------------------------------|
|-------------------------|--------------------------------|
|-------------------------|--------------------------------|
|
| E   E E   E S S E E   E   E   E E   E T T S E T T S E
|-------------------------|--------------------------------|
|-------------------------|--------------------------------|
|-------------------------|--------------------------------|
|-------------------------|-----------------x-7-----x-7----|
|-5-----------5-5---------|-5-----------4h5-----4-5--------|
|-------5-----------7---7-|-------5------------------------|
|
| S S E S S E S S E S S     S S E S S E S   S E S   S
|-------------------------|--------------------------------|
|-------------------------|--------------------------------|
|-------------------------|--------------------------------|
|-------------------------|--------------------------------|
|-5-5---------4h5---5-5---|-5-5---------4h==5---5---5------|
|-------5-5---------------|-------5-5----------------------|


  Gtr I
  E   E E   E E   E E   E   E   E E   E E     E E     E
|-x---5-x---5-x---5-x---5-|-x---5-x---5-x-----5-x-----5-|
|-x---5-x---5-x---7-x---7-|-x---5-x---5-x-----7-x-----7-|
|-x---5-x---5-x---7-x---7-|-x---5-x---5-x-----7-x-----7-|
|-------------------------|-----------------------------|
|-------------------------|-----------------------------|
|-------------------------|-----------------------------|
|
| Gtr IV
| E   E E   E S S E E   E   E   E E   E T T S E T T S E
|-------------------------|-----------------------------|
|-------------------------|-----------------------------|
|-------------------------|-----------------------------|
|-------------------------|-----------------x-7-----x-7-|
|-5-----------5-5---------|-5-----------4h5-----4-5-----|
|-------5-----------7---7-|-------5---------------------|
|
| Gtr V
| S S E S S E S S E S S S   S S E S S E S   S E S   S E
|-------------------------|-----------------------------|
|-------------------------|-----------------------------|
|-------------------------|-----------------------------|
|-------------------------|-----------------------------|
|-5-5---------4h5---5-5---|-5-5---------4h==5---5---5---|
|-------5-5---------------|-------5-5-------------------|


  E   E E   E E   E   E      E
|-x---5-x---5-x---5---x------5---|
|-x---5-x---5-x---7---x------7---|
|-x---5-x---5-x---7---x------7---|
|--------------------------------|
|--------------------------------|
|--------------------------------|
|
| E   E E   E S S S S T T  S E
|--------------------------------|
|--------------------------------|
|--------------------------------|
|-----------------7--------------|
|-5-----------4h5-----7h9\-5-----|
|-------5--------------------5---|
|
| S S E S S E S S E   S    S
|--------------------------------|
|--------------------------------|
|--------------------------------|
|--------------------------------|
|-5-5---------4h5-----5----5-----|
|-------5-5----------------------|


    Gtr V
     E    E    E    E    E    E    E    E  8x
||---x----5----x----5----x----5----x----5--||
||o--x----5----x----5----x----7----x----7-o||
||---x----5----x----5----x----7----x----7--||
||-----------------------------------------||
||o---------------------------------------o||
||-----------------------------------------||
|
|   Gtr VI
|    S S  S S  S S  S S  S S  S S  S S  E  8x
||--12---10----------------------------10--||
||o-----------13---12---10---12---13------o||
||--/9----7-----------------------------7--||
||------------10----9----7----9---10-------||
||o---------------------------------------o||
||-----------------------------------------||
|
|   Gtr IV
|    E    E    E    E    E    E    E    E  8x
||-----------------------------------------||
||o---------------------------------------o||
||--/9----7-----------------------------7--||
||------------10----9----7----9---10-------||
||o---------------------------------------o||
||-----------------------------------------||


  Gtr I
  E E E E E   E E E    E     E E E E   E   E      E
|-x-5-x-5-x---5-x-5-|--x-----5-x-5-x---5---x------5-|
|-x-5-x-5-x---7-x-7-|--x-----5-x-5-x---7---x------7-|
|-x-5-x-5-x---7-x-7-|--x-----5-x-5-x---7---x------7-|
|-------------------|-------------------------------|
|-------------------|-------------------------------|
|-------------------|-------------------------------|
|
| Gtrs IV, V
| E E E E S S E E E    E     E E E S S S S T T  S E
|-------------------|-------------------------------|
|-------------------|-------------------------------|
|-------------------|-------------------------------|
|-------------------|------------------7------------|
|-5-------5-5-------|--5-----------4h5-----7h9\-5---|
|-----5---------7-7-|----------5------------------5-|
|
| Gtr III
| W                    W
|-------------------|-------------------------------|
|-------------------|-15b17=========================|
|-------------------|-------------------------------|
|-------------------|-------------------------------|
|-------------------|-------------------------------|
|-------------------|-------------------------------|


   E    E     E E E   E        E E E E          E     E
|--x----5-----x-5-x---5--------x-5-x-5----------x-----5--|
|--x----5-----x-5-x---7--------x-7-x-5----------x-----5--|
|--x----5-----x-5-x---7--------x-7-x-5----------x-----5--|
|--------------------------------------------------------|
|--------------------------------------------------------|
|--------------------------------------------------------|
|
|  E    E     E E S S E        E E E E          E     E
|--------------------------------------------------------|
|--------------------------------------------------------|
|--------------------------------------------------------|
|--------------------------------------------------------|
|--5--------------5-5--------------5---------------------|
|-------------5----------------7-7--------------5--------|
|
|           ~~
|  E   +S   H            H              +E         E
|--------------------------------------------------------|
|-13r-(13)-15-----------15b17==========(15)b17====15r----|
|--------------------------------------------------------|
|--------------------------------------------------------|
|--------------------------------------------------------|
|--------------------------------------------------------|


  Gtr II
  T T T T T T T T T T T T S
|-5-5-5---------------------|
|-------7-7-----------------|
|-----------7-5-5-----------|
|-----------------7-5-------|
|---------------------7-5-0-|
|-------------------------5-|


  Gtr I
    E  E E E E   E E E   E E E  E   E    E   E      E   E E E  E   E    E E E
|---x--5-x-5-x---5-x-5-|-x-5-x--5---x----5---x------5-|-x-5-x--5---x----5-x-5-|
|---x--5-x-5-x---7-x-7-|-x-5-x--5---x----7---x------7-|-x-5-x--5---x----7-x-7-|
|---x--5-x-5-x---7-x-7-|-x-5-x--5---x----7---x------7-|-x-5-x--5---x----7-x-7-|
|----------------------|------------------------------|-----------------------|
|----------------------|------------------------------|-----------------------|
|----------------------|------------------------------|-----------------------|
|
| Gtrs IV, V
|   E  E E E S S E E E   E E E  E   S S  S S T T  S E   E E E  E   S  S E E E
|----------------------|------------------------------|-----------------------|
|----------------------|------------------------------|-----------------------|
|----------------------|------------------------------|-----------------------|
|----------------------|-----------------7------------|-----------------------|
|---5--------5-5-------|-5----------4h5------7h9\-5---|-5----------5--5-------|
|--------5---------7-7-|-----5----------------------5-|-----5-------------7-7-|
|
| Gtr III
|                                        ~~
|   E                    E E E  E   E    E              E E E  S E    S
|----------------------|-------15---------------------|-----------------------|
|-/13\-----------------|----------/17---15------------|-------17-----17-------|
|----------------------|------------------------------|-----------------------|
|----------------------|------------------------------|-----------------------|
|----------------------|------------------------------|-----------------------|
|----------------------|------------------------------|-----------------------|


  Gtr I
  E E E  E E    E   E      E   E E E  E  E     E     E E
|-x-5-x--5-x----5---x------5-|-x-5-x--5--x-----5-----x-5-|
|-x-5-x--5-x----7---x------7-|-x-5-x--5--x-----7-----x-7-|
|-x-5-x--5-x----7---x------7-|-x-5-x--5--x-----7-----x-7-|
|----------------------------|---------------------------|
|----------------------------|---------------------------|
|----------------------------|---------------------------|
|
| Gtrs IV, V
| E E E  E S S  S S T T  S E   E E E  E  S S   E     E E
|----------------------------|---------------------------|
|----------------------------|---------------------------|
|----------------------------|---------------------------|
|---------------7------------|---------------------------|
|-5--------4h5------7h9\-5---|-5---------5-5-------------|
|-----5--------------------5-|-----5-----------------7-7-|
|
| Gtr III
|        ~~~~~~~~~                                   ~~
| E E E  Q      Q              E E E  E  E     S  S  Q
|----------------------------|---------------------------|
|-------13-----15------------|-------12-12---/13-12-15---|
|----------------------------|---------------------------|
|----------------------------|---------------------------|
|----------------------------|---------------------------|
|----------------------------|---------------------------|


  E E E  E   E    E   E      E
|-x-5-x--5---x----5---x------5--|
|-x-5-x--5---x----7---x------7--|
|-x-5-x--5---x----7---x------7--|
|-------------------------------|
|-------------------------------|
|-------------------------------|
|
| E E E  E   S S  S S T T  S E
|-------------------------------|
|-------------------------------|
|-------------------------------|
|-----------------7-------------|
|-5----------4h5------7h9\-5----|
|-----5----------------------5--|
|
|            ~~~~~~~
| E E E  E   E    E
|-------15----------------------|
|----------/17---15-------------|
|-------------------------------|
|-------------------------------|
|-------------------------------|
|-------------------------------|


  Gtr I
  E E E E E   E E E   E E E E E   E   E      E    E E E E  E   E E E
|-x-5-x-5-x---5-x-5-|-x-5-x-5-x---5---x------5-|--x-5-x-5--x---5-x-5-|
|-x-5-x-5-x---7-x-7-|-x-5-x-5-x---7---x------7-|--x-5-x-5--x---7-x-7-|
|-x-5-x-5-x---7-x-7-|-x-5-x-5-x---7---x------7-|--x-5-x-5--x---7-x-7-|
|-------------------|--------------------------|---------------------|
|-------------------|--------------------------|---------------------|
|-------------------|--------------------------|---------------------|
|
| Gtrs IV, V
| E E E E S S E E E   E E E E S S S S T T  S E    E E E E  S S E E E
|-------------------|--------------------------|---------------------|
|-------------------|--------------------------|---------------------|
|-------------------|--------------------------|---------------------|
|-------------------|-------------7------------|---------------------|
|-5-------5-5-------|-5-------4h5-----7h9\-5---|--5--------5-5-------|
|-----5---------7-7-|-----5------------------5-|------5----------7-7-|
|
| Gtr III
|                                                 ~~~~~~~~~~~
|                                                 H        H
|-------------------|--------------------------|-17-------15---------|
|-------------------|--------------------------|---------------------|
|-------------------|--------------------------|---------------------|
|-------------------|--------------------------|---------------------|
|-------------------|--------------------------|---------------------|
|-------------------|--------------------------|---------------------|


  Gtr I
   E    E   E     E E   E E E
|--x----5---x-----5-x---5-x-5-|
|--x----5---x-----5-x---7-x-7-|
|--x----5---x-----5-x---7-x-7-|
|-----------------------------|
|-----------------------------|
|-----------------------------|
|
| Gtrs IV, V
|  E    E   E     E S S E E E
|-----------------------------|
|-----------------------------|
|-----------------------------|
|-----------------------------|
|--5----------------5-5-------|
|-----------5-------------7-7-|
|
|                 ~~
|  S S  S E    S  Q
|-----------------------------|
|-17---17-----17-15-----------|
|-----------------------------|
|-----------------------------|
|-----------------------------|
|-----------------------------|


  E E E  E     E   E   E      E    E  E E E E   E E E
|-x-5-x--5-----x---5---x------5-|--x--5-x-5-x---5-x-5--|
|-x-5-x--5-----x---7---x------7-|--x--5-x-5-x---7-x-7--|
|-x-5-x--5-----x---7---x------7-|--x--5-x-5-x---7-x-7--|
|-------------------------------|----------------------|
|-------------------------------|----------------------|
|-------------------------------|----------------------|
|
| E E E  E     S S S S T T  S E    E  E E E S S E E E
|-------------------------------|----------------------|
|-------------------------------|----------------------|
|-------------------------------|----------------------|
|------------------7------------|----------------------|
|-5------------4h5-----7h9\-5---|--5--------5-5--------|
|-----5-----------------------5-|-------5---------7-7--|
|
|              ~~~
| E E E  S  S  Q                   S
|-------------------------------|----------------------|
|-------15-13-15----------------|-15\------------------|
|-------------------------------|----------------------|
|-------------------------------|----------------------|
|-------------------------------|----------------------|
|-------------------------------|----------------------|


  Gtr I
  E E E  E E     E     E       E   E E E   E  E   E E E
|-x-5-x--5-x-----5-----x-------5-|-x-5-x---5--x---5-x-5-|
|-x-5-x--5-x-----7-----x-------7-|-x-5-x---5--x---7-x-7-|
|-x-5-x--5-x-----7-----x-------7-|-x-5-x---5--x---7-x-7-|
|--------------------------------|----------------------|
|--------------------------------|----------------------|
|--------------------------------|----------------------|
|
| Gtrs IV, V
| E E E  E S S   S  S  T  T  S E   E E E   E  S S E E E
|--------------------------------|----------------------|
|--------------------------------|----------------------|
|--------------------------------|----------------------|
|----------------7---------------|----------------------|
|-5--------4h5---------7h=9\-5---|-5----------5-5-------|
|-----5------------------------5-|-----5------------7-7-|
|
| Gtr III
|        TP      TP
| E E E  Q      +E     E           E E E   E
|-------15-----(15)--------------|----------------------|
|---------------------17\--------|-------/13\-----------|
|--------------------------------|----------------------|
|--------------------------------|----------------------|
|--------------------------------|----------------------|
|--------------------------------|----------------------|


  E E E  E    E    E   E        E
|-x-5-x--5----x----5---x--------5--|
|-x-5-x--5----x----7---x--------7--|
|-x-5-x--5----x----7---x--------7--|
|----------------------------------|
|----------------------------------|
|----------------------------------|
|
| E E E  E    S  S S S T T   S  E
|----------------------------------|
|----------------------------------|
|----------------------------------|
|------------------7---------------|
|-5-----------4h=5-----7h9\--5-----|
|-----5-------------------------5--|
|
|                ~~
| E E E  S  E    Q           E
|-------17-17---15-----------------|
|---------------------------17\----|
|----------------------------------|
|----------------------------------|
|----------------------------------|
|----------------------------------|


  Gtr II
  T T T T T T T T T T T T S
|-5-5-5---------------------|
|-------7-7-----------------|
|-----------7-5-5-----------|
|-----------------7-5-------|
|---------------------7-5-0-|
|-------------------------5-|


    Gtrs I, II
    T E   E   E E S    Q  E S   E     S      S    E  E     4x
||---------------------------------------------------------||
||o-------------------------------------------------------o||
||--5-5---4-----------------5---9-----7------5----7--5-----||
||------------7-5-7----------------------------------------||
||o-3-3---2-----------------3---7-----5------3----5--3----o||
||------------5-3-5----------------------------------------||
|
|   Gtr VI
|   Q Q Q Q   Q Q Q    Q                                   4x
||---------------------------------------------------------||
||o-------------------------------------------------------o||
||--5-4-2---------2----4-----------------------------------||
||--------5---3-5------------------------------------------||
||o-3-2-0---------0----2----------------------------------o||
||--------3---1-3------------------------------------------||
|
|   Gtrs VGtrs V, VI
|   H S T S S S S S S  E  S Q E S  S  S S S  S  S          4x
||--------8---8-7-8---12-10-------10-10---8-10-12----------||
||o-------------------------------------------------------o||
||--------5---5-4-5----9--7--------7--7---5--7--9----------||
||---------------------------------------------------------||
||o-------3---3-2-3----7--5--------5--5---3--5--7---------o||
||---------------------------------------------------------||


Duration Legend
---------------
W - whole; H - half; Q - quarter; E - 8th; S - 16th; T - 32nd; X - 64th; a - acciaccatura
+ - note tied to previous; . - note dotted; .. - note double dotted
Uncapitalized letters represent notes that are staccato (1/2 duration)
Irregular groupings are notated above the duration line
Duration letters will always appear directly above the note/fret number it represents the
duration for.  Duration letters with no fret number below them represent rests.  Multi-
bar rests are notated in the form Wxn, where n is the number of bars to rest for.  Low
melody durations appear below the staff

Tablature Legend
----------------
 h   - hammer-on
 p   - pull-off
 b   - bend
 pb  - pre-bend
 r   - bend release (if no number after the r, then release immediately)
 /\  - slide into or out of (from/to "nowhere")
 s   - legato slide
 S   - shift slide
  - natural harmonic
[n]  - artificial harmonic
n(n) - tapped harmonic
 ~   - vibrato
 tr  - trill
 T   - tap
 TP  - trem. picking
 PM  - palm muting
\n/  - tremolo bar dip; n = amount to dip
 \n  - tremolo bar down
 n/  - tremolo bar up
/n\  - tremolo bar inverted dip
 =   - hold bend; also acts as connecting device for hammers/pulls
 <>  - volume swell (louder/softer)
 x   - on rhythm slash represents muted slash
 o   - on rhythm slash represents single note slash

Misc Legend
-----------
 |  - bar
||  - double bar
||o - repeat start
o|| - repeat end
*|  - double bar (ending)
 :  - bar (freetime)
 $  - Segno
 &  - Coda
Tempo markers -  = BPM(8/16=s8/s16), where s8 = swing 8ths, s16 = swing 16ths


Добавлено: 16.06.2012
Другие материалы по этой песне:

Страница создана 18.03.2012
http://primanota.ru/frank-zappa/fine-girl-chords.htm
Привет, Гость.
Предлагаем пройти революционный курс по гитаре.
Подарок от PrimaNota.Ru, забирай!