PrimaNota.ru - самый крупный в мире бесплатный архив песенных текстов, аккордов, табулатур и нот


Frank Zappa - Clowns On Velvet - текст песни, таба, видео

Регистрация Запомнить меня
Войти через:  Facebook Google Twitter Vk Yandex Mail.ru

Frank Zappa - Clowns On Velvet - текст песни, таба, видео

Печатать
Просмотров: 118
Уроки эстрадного вокала в Санкт-Петербурге
                               Clowns On Velvet                               


      S  S  S  S E  S S E  S E  E.      S  S  S  S E  S S E  S E  E.   
E||--10-10-10-10-----------8-7--L---|--10-10-10-10-----------8-7--L---|
B||---------------------------------|---------------------------------|
G||-----------------7-7-------------|-----------------7-7-------------|
D||---------------------------------|---------------------------------|
A||---------------------------------|---------------------------------|
E||---------------------------------|---------------------------------|
 
 
   S  S  S  S E  S S E  S E  E   S     H.           E   S  S  
--10-10-10-10-----------8-7--L--12-|--11------------L--------|
-----------------------------------|-------------------12-13-|
-----------------7-7---------------|-------------------------|
-----------------------------------|-------------------------|
-----------------------------------|-------------------------|
-----------------------------------|-------------------------|
 
 
   S  S  S  S  S  S  S  S S  S  E   E   E      E.   S E   E  H         
--10-10-10-10-10---------------------------|--------------------------|
-----------------12-12-12---12-12--12--10--|-------10-L--12--L--------|
-------------------------------------------|--12----------------------|
-------------------------------------------|--------------------------|
-------------------------------------------|--------------------------|
-------------------------------------------|--------------------------|
 
 
   S  S  S  S  S  S  S  S S  S  E   E   E      E.   S E   E  H         
--10-10-10-10-10---------------------------|--------------------------|
-----------------12-12-12---12-12--12--10--|-------10-L---------------|
-------------------------------------------|--12---------11--L--------|
-------------------------------------------|--------------------------|
-------------------------------------------|--------------------------|
-------------------------------------------|--------------------------|
 
 
  S S S S S  E   S E.   S  E   E      E.   S  E   E  H         
----------------------------------|---------------------------|
------------10--11-L---11-11--11--|--13---13--L--13--L--------|
--9-9-9-9-9-----------------------|---------------------------|
----------------------------------|---------------------------|
----------------------------------|---------------------------|
----------------------------------|---------------------------|
 
 
   S  S  S  S  S  E   S E   E   E   E      E.   S E   E  H         
---------------------------------------|--------------------------|
---------------------------------------|-------------11--L--------|
--12-12-12-12-12-12--10-L--10--10--10--|--12---12-L---L-----------|
---------------------------------------|--------------------------|
---------------------------------------|--------------------------|
---------------------------------------|--------------------------|
 
 
   S  S  S  S  S  E  S E  E  E  E      E.   S E  E  H         
-----------------------------------|-------------------------|
--10-10-10-10-10-10--9-L--9--9--9--|-------------------------|
-----------------------------------|--10---10-L--9--L--------|
-----------------------------------|-------------------------|
-----------------------------------|-------------------------|
-----------------------------------|-------------------------|
 
 
   S  S  S  S  S  E   Q     S  E   E     E.  S E   E  H         
--------------------------------------|------------------------|
--------------------------------------|------------------------|
--------------------------------------|--8---9-L--12--L--------|
--11-11-11-11-11-11--11----11-11--11--|------------------------|
--------------------------------------|------------------------|
--------------------------------------|------------------------|
 
 
   S  S  S  S  S  S  S  S S  S  E   E   E      E.   S E   E  H         
--10-10-10-10-10---------------------------|--------------------------|
-----------------12-12-12---12-12--12--10--|-------10-L--12--L--------|
-------------------------------------------|--12----------------------|
-------------------------------------------|--------------------------|
-------------------------------------------|--------------------------|
-------------------------------------------|--------------------------|
 
 
   S  S  S  S  S  S  S  S S  S  E   E   E      E.   S E   E  H         
--10-10-10-10-10---------------------------|--------------------------|
-----------------12-12-12---12-12--12--10--|-------10-L---------------|
-------------------------------------------|--12---------11--L--------|
-------------------------------------------|--------------------------|
-------------------------------------------|--------------------------|
-------------------------------------------|--------------------------|
 
 
  S S S S S  E   S E.   S  E   E      E.   S  E   E  H         
----------------------------------|---------------------------|
------------10--11-L---11-11--11--|--13---13--L--13--L--------|
--9-9-9-9-9-----------------------|---------------------------|
----------------------------------|---------------------------|
----------------------------------|---------------------------|
----------------------------------|---------------------------|
 
 
   S  S  S  S  S  E   S E   E   E   E      E.   S E   E  H         
---------------------------------------|--------------------------|
---------------------------------------|-------------11--L--------|
--12-12-12-12-12-12--10-L--10--10--10--|--12---12-L---L-----------|
---------------------------------------|--------------------------|
---------------------------------------|--------------------------|
---------------------------------------|--------------------------|
 
 
   S  S  S  S  S  E  S E  E  E  E      E.   S E  E  H         
-----------------------------------|-------------------------|
--10-10-10-10-10-10--9-L--9--9--9--|-------------------------|
-----------------------------------|--10---10-L--9--L--------|
-----------------------------------|-------------------------|
-----------------------------------|-------------------------|
-----------------------------------|-------------------------|
 
 
   S  S  S  S  S  E   Q     S  E   E     E.  S E   E  H          
--------------------------------------|------------------------||
--------------------------------------|------------------------||
--------------------------------------|--8---9-L--12--L--------||
--11-11-11-11-11-11--11----11-11--11--|------------------------||
--------------------------------------|------------------------||
--------------------------------------|------------------------||
 
 
 
 
Duration Legend
---------------
W - whole
H - half
Q - quarter
E - 8th
S - 16th
T - 32nd
X - 64th
. - note dotted
|-n-|  - n-tuplets
 
 
Tablature Legend
----------------
L - tied note
x - dead note
g - grace note
(n) - ghost note
> - accentuded note
NH - natural harmonic
AH - artificial harmonic
TH - tapped harmonic
SH - semi harmonic
PH - pitch harmonic
h - hammer on
p - pull off
b - bend
br - bendRelease
pb - preBend
pbr - preBendRelease
brb - bendReleaseBend
\n/ - tremolo bar dip
\n - tremolo bar dive
-/n - tremolo bar Release up
/n\ - tremolo bar inverted dip
/n - tremolo bar return
-\n - tremolo bar Release down
S - shift slide
s - legato slide
/ -  slide into from below or out of upwards
\ -  slide into from above or out of downwards
~ - vibrato
W - wide vibrato
tr - tril'
TP - tremolo picking
T - tapping
S - slap
P - pop
< - fade in
^ - brush up
v - brush down
Добавлено: 08.07.2012
Другие материалы по этой песне:
  • Аккорды и текст

Страница создана 05.06.2012
http://primanota.ru/frank-zappa/clowns-on-velvet-chords.htm
Привет, Гость.
Предлагаем пройти революционный курс по гитаре.
Подарок от PrimaNota.Ru, забирай!