PrimaNota.ru - самый крупный в мире бесплатный архив песенных текстов, аккордов, табулатур и нот


Frank Zappa - Billy The Mountain - текст песни, бас-таба, видео

Регистрация Запомнить меня
Войти через:  Facebook Google Twitter Vk Yandex Mail.ru

Frank Zappa - Billy The Mountain - текст песни, бас-таба, видео

Печатать
Просмотров: 107
Artist: Frank Zappa

Album: Just Another Band from L.A.

Song: Billy The Mountain

_____________________________________

Intro

G||---------------------|
D||---------------------|
A||-------4----4-----4--|
E||-----4----------4----|

G||-----------------------------------------------|
D||-----------------------------------------------|
A||-----------0---1---3---4---5---6---6---8---8---|
E||--4-3---3-------------------------6-------8----|

Billy Theme
                                      X12
G||-------------------------------------|
D||-------11-------11-------13.14.13----|
A||--10.11----10.11----12.13--------13--| iiiiii
E||-------------------------------------|

G||-----------------------------------------------------------------|
D||-----------------------------------------------------------------|
A||--11-11-11-11-11--11.11--11.11-3-3-3-3-3-33-33--4-4-4-4-4-4-4-4--|
E||-----------------------------------------------------------------|

               X4
G||--------4----|
D||-------6-----|
A||--6--4-------|
E||----------4--|

Billy Theme
                                      X16
G||-------------------------------------|--------------------|
D||-------11-------11-------13.14.13----|-------11-------11--|
A||--10.11----10.11----12.13--------13--|--10.11----10.11----|
E||-------------------------------------|--------------------|

...Billy the mountain was rit

G||--------------------------------------------------------|
D||--------------------------------------------------------|
A||-11-11-------------------4-4-----4-5-6\---/----\--\--\--|
E||-------11-11--9-9/--4-4------44-------------------------|

Chorus

G||---------------------------------8--8--6---6----6-6--6----6-5------|
D||--6---6---6--6---6----8---8-----8--8-----6-------6-6--6-------8-6--|
A||----6---6---6---6-6-----8---86-8-----------------------------------|
E||-------------------------------------------------------------------|

G||------------------------------8--8--6---6--6-6---6---6-5------|
D||--6---6---6---6----8---8-----8--8-----6-----6-6---6------8-6--|
A||----6---6---6---6----8---86-8---------------------------------|
E||--------------------------------------------------------------|

G||----------------------------------|
D||--8---8---8---8--8---11-10--------|
A||----8---8----8--8----------13-11--|
E||----------------------------------|

G||-------------------------------------------------------|
D||--8---8---8---8--8---11-10-11--------------------------|
A||----8---8----8--8--------------------------------------|
E||------------------------------11.11.11.11.11.11.11.11--|

Billy Theme
                                       X6
G||-------------------------------------|--------------------|
D||-------11-------11-------13.14.13----|-------11-------11--|
A||--10.11----10.11----12.13--------13--|--10.11----10.11----| ANOunce
E||-------------------------------------|--------------------|

(wait)
                                       X8
G||-------------------------------------|
D||-------11-------11-------13.14.13----|
A||--10.11----10.11----12.13--------13--|
E||-------------------------------------|

    New York
G||---------------------|
D||---------------------|
A||--11---11-11---------|
E||--------------10-10--|

(wait) Billy Sings

Chorus (LAS VEGAS)

G||---------------------------------8--8--6---6----6-6--6----6-5------|
D||--6---6---6--6---6----8---8-----8--8-----6-------6-6--6-------8-6--|
A||----6---6---6---6-6-----8---86-8-----------------------------------|
E||-------------------------------------------------------------------|

G||------------------------------8--8--6---6--6-6---6---6-5------|
D||--6---6---6---6----8---8-----8--8-----6-----6-6---6------8-6--|
A||----6---6---6---6----8---86-8---------------------------------|
E||--------------------------------------------------------------|

G||-------------------------------------------------------|
D||--8---8---8---8--8---11-10-11--------------------------|
A||----8---8----8--8--------------------------------------|
E||------------------------------11.11.11.11.11.11.11.11--|

During Billy's March

G||-----------------------------|
D||-----------------------------|
A||-----------------------------| Repeat
E||--1--3--1--3--1--3--1--3--1--|

(wait)

Air Force Base ... LAuched...

G||------|
D||------|
A||------|
E||--3/--|

Girly Scrams... wait... until...

G||------------|
D||------------|
A||--5--3-0----|
E||---------1--|

The Gas Song (very wierd indeed)

G||--------------------------------------------------------------16-17-18-19--|
D||--11-10-------11-10-11-12-13-12-13--16-17-16-17--18-19-18-19---------------|
A||--------10-12--------------------------------------------------------------|
E||---------------------------------------------------------------------------|

G||--21------------------|
D||-----20-13--19-18-----|
A||------------------18--|
E||----------------------|

Wind and woman screaming (wait)....Start this in "Over the rainbow"

G||------------------------------------------------------------------------------|
D||------------------------------------------------------------------------------|
A||------------------------------------------------------------------------------|
E||--222222-333333-2222-666666-5555-10.10.10.10.10-9999999-17.17.17.17.17.17--9--|

(wait a bit) Suck

G||----------------|
D||----------------|
A||-1/24.24.24.24--|
E||----------------|

G||-------------------|
D||-------------------|
A||--11--11-11--------|
E||------------10-10--|

Billy Theme
                                       X6
G||-------------------------------------|--------------------|
D||-------11-------11-------13.14.13----|-------11-------11--|
A||--10.11----10.11----12.13--------13--|--10.11----10.11----| Reports
E||-------------------------------------|--------------------|

(wait) Screams... "God Save America"

(wait) Economic Slup.... then play....

G||--------------------------------------------------------------|
D||-------------------------------8--9-----9---------------------|
A||--7--7----7---7-8-9--9---9---9---9---9---------6-7--7---------|
E||------7--7---7-7-7----9-----9------------7-7-9-----7---78--8--|

G||----------------------------------------------------------------|
D||-------------------------------8---9------9---------------------|
A||--7--7----7---7-8-9--9---9---9---9----9----------6-7--x6-x5-x4--|
E||------7--7---7-7-7----9-----9--------------7-7-9----------------|

G||-----------------------------------------------------------------------------------|
D||-----------------------------------------------------------------------------------|
A||----------0-0-2-2-7-7-6-5-4-4-4-4---------0-0-2-2-7-7-7-7-5-5-5-5-3-3-3-3-2-2-2-2--|
E||--2-2-2-2-------------------------2-2-2-2------------------------------------------|

G||--------------------------|
D||--------------------------|
A||--3--2--0----7--5------7--|
E||-------------------8------|

G||---------------------------
D||--666666-555--33333333-----
A||------------------------2--
E||---------------------------

G||----------------------------------------------------|
D||----------------------------------------------------|
A||--777777-777777-7------11.11.11.11.11.11.11-888888--|
E||----------------------------------------------------|

(wait) a Lot... "voice"

Billy Theme
                                      X12
G||-------------------------------------|--------------------|
D||-------11-------11-------13.14.13----|-------11-------11--|
A||--10.11----10.11----12.13--------13--|--10.11----10.11----|
E||-------------------------------------|--------------------|

G||-------------------|
D||-------------------|
A||--11--11-11--------|
E||------------10-10--|
                                       X4
G||-------------------------------------|--------------------|
D||-------11-------11-------13.14.13----|-------11-------11--|
A||--10.11----10.11----12.13--------13--|--10.11----10.11----| iiii
E||-------------------------------------|--------------------|

G||---------------------------|
D||---------------------------|
A||------2--34----4--7--89----|
E||--3-5----------------------|

G||---------------|
D||---------------|
A||--7-7-7-7-7-7--|
E||---------------|

(wait)
                                                                       X8
G||---------------------------------------------------------------------|
D||---------------------------------------------------------------------|
A||--11.11.11.10-8---11-11--11.11.10.8-----11.11.11.10-8---11-11--10.8--|
E||---------------------------------------------------------------------|

G||-----------------------------------------------------------|
D||-----------------------------------------------------------|
A||--11.11.11.10-8----11.11.11.10-8----11.11.11.10-8-------2--|
E||-----------------------------------------------------------|

G||------------------------------------------------------------------------------------------------|
D||------------------------------------------------------------------------------------------------|
A||--9-9-9-9-9-9-9-9-9-9-9-9-9-9-9-9-9-9-9-9-9-9-9-9.10.10.10.10.10.10.10.10.10.10.10.10.10.10.10--| keep playin until...
E||------------------------------------------------------------------------------------------------|

G||------------------------------------------------------------------------------------------------|
D||------------------------------------------------------------------------------------------------|
A||--11.11.11.11.11.11.11.11.11.11.11.11.11.11.11.11.11.11.11.11.11.11.11.11.11.11.11.11.11.11.11--|
E||------------------------------------------------------------------------------------------------|

G||------------------------------------------------------------------------------------------------|
D||------------------------------------------------------------------------------------------------|
A||--12.12.12.12.12.12.12.12.12.12.12.12.12.12.12.13.13.13.13.13.13.13.13.13.13.13.13.13.13.13.13--|
E||------------------------------------------------------------------------------------------------|

G||------------------------------------------------------------------------------------------------|
D||------------------------------------------------------------------------------------------------|
A||--14.14.14.14.14.14.14.14.14.14.14.14.14.14.14.15.15.15.15.15.15.15.15.15.15.15.15.15.15.15.15--|
E||------------------------------------------------------------------------------------------------|

G||------------------------------------------------------------------------------------------------|
D||------------------------------------------------------------------------------------------------|
A||--14.14.14.14.14.14.14.14.14.14.14.14.14.14.14.15.15.15.15.15.15.15.15.15.15.15.15.15.15.15.15--|
E||------------------------------------------------------------------------------------------------|

G||-------------------|
D||-------------------|
A||--11--11-11--------|
E||------------10-10--|

(wait) play after.... "and into the skyyy......."

                                              X2
G||-------------2------------------------------|
D||--5-2----------4---5-2---------5-2----------|
A||------5-3-0------------5-3-0--------5--3-0--|
E||--------------------------------------------|

G||------25-------4-67--9.10-9-7-9---------------------|
D||--2--5---4-5-7---------------------55-55-55-55-5-5--|
A||----------------------------------------------------|
E||----------------------------------------------------|

G||------25-------4-67--9.10-9-7-9---------------------|
D||--2--5---4-5-7---------------------55-55-55-55-5-7--|
A||----------------------------------------------------|
E||----------------------------------------------------|

G||-----------------|
D||-----------------|
A||--5---5---5---5--|
E||-----------------|

G||-----7-7----77-7--------------------|
D||--------------7-7-------------------|
A||--5---5-5---------5---5---555-55-5--|
E||------------------------------------|

G||-------------------------------------------|
D||----------------------4-7-4----------------|
A||--5-5-5-5-5-5-5-------------5-----5-5------|
E||----------------5-5-5---------5-5-----5-5--|

G||-------------------------------------|
D||-------------------------------------|
A||--5-5-5-5-------5-6-7-8-----8-8------|
E||----------5-5-5---------8-8-----8-8--|

G||--------------------------------------------|
D||------7-5----------7-5----------------------|
A||--8-9------5---8-9------5------------0-1-3--|
E||---------------------------6--3-----3-------|

G||---------------------------
D||---------------------------
A||----------------3-4---6-7--
E||----6--6--66-6-------------

G||-------------------------------------------------------------------------------------|
D||-------------------------------------------------------------------------------------|
A||--9-9---9---9-9-9-9-9---7---7---7-7-7-7-7----9---9--9-9-9-9-9----7---7--7-7-7-7-7----|
E||------9----9-9-9-9-9------7----7-7-7-7-7----7--9---9-9-9-9-9---9---7---7-7-7-7-7--7--|

G||-----------------|
D||-----------------|
A||--5---5---5---5--|
E||-----------------|

(wait)play when .... "2 hundred feet into the ruble below".....

G||--------------------------|
D||--------------------------|
A||--------------------------|
E||--19////////////////////--|

(wait) "and i'll show you once again that..."

G||-------------------------------8--8--6---6----6-6--6----6-5------|
D||--6---6---6---6-----8---8-----8--8-----6-------6-6--6-------8-6--|
A||----6---6---66--6-----8---86-8-----------------------------------|
E||-----------------------------------------------------------------|

G||-------------------------------8--8----6---6--6-6---6---6-5------|
D||--6---6---6---6-6---8---8-----8--8-8-----6-----6-6---6------8-6--|
A||----6---6---6--6------8---86-8-----------------------------------|
E||-----------------------------------------------------------------|

G||------------------------------------------------------------------|
D||--6-6-6-----------------------------------------------------------|
A||-----------------------------------3-3-33333335-------------------|
E||---------6-6-666-6--1-1-1-11-1-1-1--------------3-33-3-33-3-33-3--|

G||--------------------------------------|
D||--------------------------------------|
A||--------------------------------------|
E||--4-4-4-4-4-4-4-6----4-4-4-4-4-4-4-6--|

G||-------------------------------|
D||-------------------------------|
A||-------------------------------|
E||--4-4-4-6---4-4-4-6---4-4-4-6--|

End

G||----------|
D||------6---|
A||---6------|
E||----------|
Добавлено: 14.04.2012
Другие материалы по этой песне:
  • Аккорды и текст

Страница создана 09.04.2012
http://primanota.ru/frank-zappa/billy-the-mountain-chords.htm
Привет, Гость.
Предлагаем пройти революционный курс по гитаре.
Подарок от PrimaNota.Ru, забирай!