PrimaNota.ru - самый крупный в мире бесплатный архив песенных текстов, аккордов, табулатур и нот


Frank Zappa - Big Leg Emma - текст песни, бас-таба, видео

Регистрация Запомнить меня
Войти через:  Facebook Google Twitter Vk Yandex Mail.ru

Frank Zappa - Big Leg Emma - текст песни, бас-таба, видео

Печатать
Просмотров: 113
Artist: Frank Zappa & Mothers of Invention

Album: Absolutely Free

Song: Big Leg Emma


Intro

G||--------------------------------------|
D||--9--9/7---6-7-9-7-6---9-9--9-9--9-9--|
A||--------------------------------------|
E||--------------------------------------|

Verse

G||-----------------------------------------------|
D||-----------------------------------------------|
A||--7-----5-7---------5-7--------5-7--------5-7--|
E||----5-7------0--5-7-----0--5-7-----0--5-7------|

G||--------------------------------------------|
D||--------5-7-------5-7-----------------------|
A||----5-7-------5-7------------5-7---------5--|
E||--5---------5---------0--5-7------0--5-7----|

G||--------------------------------------|
D||--9--9/7---6-7-9-7-6---9-9--9-9--9-9--|
A||--------------------------------------|
E||--------------------------------------|

Verse 2

G||-----------------------------------------------|
D||-----------------------------------------------|
A||--7-----5-7---------5-7--------5-7--------5-7--|
E||----5-7------0--5-7-----0--5-7-----0--5-7------|

G||--------------------------------------------|
D||--------5-7-------5-7-----------------------|
A||----5-7-------5-7------------5-7---------5--|
E||--5---------5---------0--5-7------0--5-7----|

G||--------------------------------------|
D||--9--9/7---6-7-9-7-6---9-9--9-9--9-9--|
A||--------------------------------------|
E||--------------------------------------|

Interlude

G||-------------------------------|
D||-------------------------------|
A||--777777777777777777777777-77--|
E||-------------------------------|

G||------------------------------------|
D||-55-5--777777777777777777777777-----|
A||--------------------------------77--|
E||------------------------------------|

G||---------------------------------------|
D||--10/9--7---6-7-9-7-6---9-9--9-9--9-9--|
A||---------------------------------------|
E||---------------------------------------|

Solo

G||-----------------------------------------------|
D||-----------------------------------------------|
A||--7-----5-7---------5-7--------5-7--------5-7--|
E||----5-7------0--5-7-----0--5-7-----0--5-7------|

G||--------------------------------------------|
D||--------5-7-------5-7-----------------------|
A||----5-7-------5-7------------5-7---------5--|
E||--5---------5---------0--5-7------0--5-7----|

G||------------------------------------|
D||--9--7---6-7-9-7-6---9-9--9-9--9-9--|
A||------------------------------------|
E||------------------------------------|

Verse 3

G||-----------------------------------------------|
D||-----------------------------------------------|
A||--7-----5-7---------5-7--------5-7--------5-7--|
E||----5-7------0--5-7-----0--5-7-----0--5-7------|

G||--------------------------------------------|
D||--------5-7-------5-7-----------------------|
A||----5-7-------5-7------------5-7---------5--|
E||--5---------5---------0--5-7------0--5-7----|

G||--------------------------------------|
D||--9--9/7---6-7-9-7-6---9-9--9-9--9-9--|
A||--------------------------------------|
E||--------------------------------------|

Verse 4 (End)

G||-----------------------------------------------|
D||-----------------------------------------------|
A||--7-----5-7---------5-7--------5-7--------5-7--|
E||----5-7------0--5-7-----0--5-7-----0--5-7------|

G||--------------------------------------------|
D||--------5-7-------5-7-----------------------|
A||----5-7-------5-7------------5-7---------5--|
E||--5---------5---------0--5-7------0--5-7----|

G||----------|
D||--9--9/7--|
A||----------|
E||----------|

Tab by: PEdro Zappa
Добавлено: 10.06.2012
Другие материалы по этой песне:
  • Аккорды и текст

Страница создана 28.04.2012
http://primanota.ru/frank-zappa/big-leg-emma-chords.htm
Привет, Гость.
Предлагаем пройти революционный курс по гитаре.
Подарок от PrimaNota.Ru, забирай!