PrimaNota.ru - самый крупный в мире бесплатный архив песенных текстов, аккордов, табулатур и нот


Frank Zappa - Bacon Fat - текст песни, бас-таба, видео

Регистрация Запомнить меня
Войти через:  Facebook Google Twitter Vk Yandex Mail.ru

Frank Zappa - Bacon Fat - текст песни, бас-таба, видео

Печатать
Просмотров: 45
-------------------------------------------------------------------------------
                           Bacon Fat - Frank Zappa
-------------------------------------------------------------------------------
Tabbed by: Jacque
E-mail: Imbatman1312@gmail.com

Tuning: Standard

This is the "Broadway The Hard Way" Version

Intro

G|--------------------------------|
D|------2---5\-------1h2---5\-----|
A|--3------------3----------------|
E|--------------------------------|

G|--------------------------------|
D|------2---5\-------1h2---5\-----|
A|--3------------3----------------|
E|--------------------------------|

G|------2----5\-------1h2----5\----|
D|--3-------------3----------------|
A|---------------------------------|
E|---------------------------------|

G|--------------------------------|
D|------2---5\-------1h2---2\-----|
A|--3------------3----------------|
E|--------------------------------|

G|------------------------------------------------|
D|--------------------------------------1h2---5---|
A|--5-------------------------0-1-2--3------------|
E|----5-4-3-------1---1-0-1-1---------------------|

G|------------8-8-------------------|
D|-------8----------10--8----8--10--|
A|--8h10---10-------------10--------|
E|----------------------------------|

Verse

G|-------------------------------|
D|-----1h2---5\-------1h2---5\---|
A|--3--------------3-------------|
E|-------------------------------|

G|------------------------------------------------------------------|
D|-----1h2---5\---------1-2-----------------------------------------|
A|--3--------------3--------3-2--------------3\---------------------|
E|------------------------------3---1---4h5-------1--1---4h5---5\---|

G|-------------------------------|
D|-----1h2---5\-------1h2---5\---|
A|--3--------------3-------------|
E|-------------------------------|

G|-------------------------------------|
D|-------------------------------------|
A|------1h2-------------------1---3----|
E|--3--------3\----1-1--1-2-3---3------|

Short Break

Chorus

G|-------------------------------------------------5------------|
D|-----1h2----5\-------1h2--------------(5)/7-5-----------------|
A|--3---------------3--------1----3--/6----------3---/6---------|
E|-------------------------3---3-------------------------5--3---|

G|---------------------------------5----------------------0h2p0-----|
D|------------------------------------1h2---5p(2)----1h2--------2---|
A|-----------3\-----------3\---/3------------------3----------------|
E|--1---4h5------1---4h5--------------------------------------------|

G|--------------0-1----------0h1p0--------------------------|
D|----------0-1-----1--------------1-----1h2---5\-----1h2---|
A|------1h2-----------3-2-------------3------------3--------|
E|--3---------------------3-1-------------------------------|


| () ghost note
| /  slide up
| \  slide down
| h  hammer-on
| p  pull-off
| ~  vibrato
| +  harmonic
| x  Mute note
===============================================================================
Добавлено: 08.02.2016
Другие материалы по этой песне:
  • Аккорды и текст

Страница создана 22.10.2013
http://primanota.ru/frank-zappa/bacon-fat-chords.htm
Привет, Гость.
Предлагаем пройти революционный курс по гитаре.
Подарок от PrimaNota.Ru, забирай!