PrimaNota.ru - самый крупный в мире бесплатный архив песенных текстов, аккордов, табулатур и нот


Frank Zappa - Baby Snakes - текст песни, таба, видео

Регистрация Запомнить меня
Войти через:  Facebook Google Twitter Vk Yandex Mail.ru

Frank Zappa - Baby Snakes - текст песни, таба, видео

Печатать
Просмотров: 119
-------------------------------------------------------------------------------
                            Baby Snakes - Frank Zappa
-------------------------------------------------------------------------------
Tabbed by: Adam Warburton
Written by: Frank Zappa
Album: Sheik Yerbouti

Tuning: Standard. E,A,D,G,B,e

e|---------------------------------------------------------------------------|
B|---------------------------------------------------------------------------|
G|------3-3-3-3-3-3-----3-3-3-3-3-3-----3-3-3-3-3-3--3-----------------------|
D|------4-4-4-4-4-4-----4-4-4-4-4-4-----4-4-4-4-4-4--4-----------------------|
A|------4-4-4-4-4-4-----4-4-4-4-4-4-----4-4-4-4-4-4--4-----------------------|
E|--0h2-2-2-2-2-2-2-0h2-2-2-2-2-2-2-0h2-2-2-2-2-2-2--2-----------------------|
                                                      ....."Baby Snakes"

e|--------------------------------------------------------------------------------|
B|--------------------------------------------------------------------------------|
G|------3-3-3-----3-3-3-----5-5-5-----3-3-3-----3-3-3-----5-5-5-----3-3-3--3--5---|
D|------4-4-4-----4-4-4-----6-6-6-----4-4-4-----4-4-4-----6-6-6-----4-4-4--4--6---|
A|------4-4-4-----4-4-4-----6-6-6-----4-4-4-----4-4-4-----6-6-6-----4-4-4--4--6---|
E|--0h2-2-2-2-0h2-2-2-2-0h4-4-4-4-0h2-2-2-2-0h2-2-2-2-0h4-4-4-4-0h2-2-2-2--2--4---|
    "Late at night is when they come out............."

e|--------------------------------------------------------------------------------|
B|--------------------------------------------------------------------------------|
G|------3-3-3-----3-3-3-----5-5-5-----3-3-3-----3-3-3-----5-5-5-----3-3-3--3--5---|
D|------4-4-4-----4-4-4-----6-6-6-----4-4-4-----4-4-4-----6-6-6-----4-4-4--4--6---|
A|------4-4-4-----4-4-4-----6-6-6-----4-4-4-----4-4-4-----6-6-6-----4-4-4--4--6---|
E|--0h2-2-2-2-0h2-2-2-2-0h4-4-4-4-0h2-2-2-2-0h2-2-2-2-0h4-4-4-4-0h2-2-2-2--2--4---|
    "Looked around, An' there's a couple right near me......."

e|------------------------------------------------------------|
B|------------------------------------------------------------|
G|--------------------5-5--5-5--5-5--5-5--3-3--3-3--3-3--3-3--|
D|--------------------6-6--6-6--6-6--6-6--4-4--4-4--4-4--4-4--|
A|--------------------6-6--6-6--6-6--6-6--4-4--4-4--4-4--4-4--|
E|--2--2-2--2--2-5-4--4-4--4-4--4-4--4-4--2-2--2-2--2-2--2-2--|
                      "They live in a ho-ho-hole (Tiny hole)...."

e|--------------------------------------------|
B|--------------------------------------------|
G|-5-5--5-5--5-5--5-5--3-3--3-3--3-3--3-3--5--|
D|-6-6--6-6--6-6--6-6--4-4--4-4--4-4--4-4--6--|
A|-6-6--6-6--6-6--6-6--4-4--4-4--4-4--4-4--6--|
E|-4-4--4-4--4-4--4-4--2-2--2-2--2-2--2-2--4--|

e|----------------------------------|  X3
B|----------------------------------|
G|--6-6--6--6-6--6--8-8--8--8-8--8--|
D|--7-7--7--7-7--7--9-9--9--9-9--9--|
A|--7-7--7--7-7--7--9-9--9--9-9--9--|
E|--5-5--5--5-5--5--7-7--7--7-7--7--|
    "Maybe I think.........."

e|------------------------|
B|------------------------|
G|-6-6-6--6-6-6--6-6-6-6--|
D|-7-7-7--7-7-7--7-7-7-7--|
A|-7-7-7--7-7-7--7-7-7-7--|
E|-5-5-5--5-5-5--5-5-5-5--|
   "give 'em a, give 'em a, give 'em a drink"

e|-----------------------------------------------------------------|  X4
B|-----------------------------------------------------------------|
G|-11--11-11-11--11-11-11--11-11-11-11--8--8-8-8--8-8-8--8-8-8-8---|
D|-12--12-12-12--12-12-12--12-12-12-12--9--9-9-9--9-9-9--9-9-9-9---|
A|-12--12-12-12--12-12-12--12-12-12-12--9--9-9-9--9-9-9--9-9-9-9---|
E|-10--10-10-10--10-10-10--10-10-10-10--7--7-7-7--7-7-7--7-7-7-7---|

e|--------------------------------------------------------------------------------|
B|--------------------------------------------------------------------------------|
G|------3-3-3-----3-3-3-----5-5-5-----3-3-3-----3-3-3-----5-5-5-----3-3-3--3--5---|
D|------4-4-4-----4-4-4-----6-6-6-----4-4-4-----4-4-4-----6-6-6-----4-4-4--4--6---|
A|------4-4-4-----4-4-4-----6-6-6-----4-4-4-----4-4-4-----6-6-6-----4-4-4--4--6---|
E|--0h2-2-2-2-0h2-2-2-2-0h4-4-4-4-0h2-2-2-2-0h2-2-2-2-0h4-4-4-4-0h2-2-2-2--2--4---|



=====================================================================================
Добавлено: 18.03.2012
Другие материалы по этой песне:
  • Аккорды и текст

Страница создана 18.03.2012
http://primanota.ru/frank-zappa/baby-snakes-chords.htm
Привет, Гость.
Предлагаем пройти революционный курс по гитаре.
Подарок от PrimaNota.Ru, забирай!