PrimaNota.ru - самый крупный в мире бесплатный архив песенных текстов, аккордов, табулатур и нот


Frank Zappa - Are You Hung Up? - текст песни, таба, видео

Регистрация Запомнить меня
Войти через:  Facebook Google Twitter Vk Yandex Mail.ru

Frank Zappa - Are You Hung Up? - текст песни, таба, видео

Печатать
Просмотров: 48
-------------------------------------------------------------------------------
        ARE YOU HUNG UP? - Frank Zappa & The Mothers of Invention
-------------------------------------------------------------------------------
Tabbed by: Thomas Spader
E-mail: thomas.spader@gmail.com

I always thought this was the most bad ass little line, but could never find a tab for it!

Tuning:

e|---------------------------------------8-10--------------------------------|
B|7v---7-------------------------8h10-10-------------------------------------|
G|---9---9---9p7-5-7p5---5-5-7h9---------------------------------------------|
D|---------------------7-----------------------------------------------------|
A|---------------------------------------------------------------------------|
E|---------------------------------------------------------------------------|

************************************

| /   slide up
| \   slide down
| h   hammer-on
| p   pull-off
| ~   vibrato
| +   harmonic
| x   Mute note
| b   Bend
| pb  Pre-bend
| br  Bend release
| pbr Pre-bend release
| brb Bend release bend

************************************
Добавлено: 08.02.2016
Другие материалы по этой песне:
  • Аккорды и текст

Страница создана 12.01.2014
http://primanota.ru/frank-zappa/are-you-hung-up-chords.htm
Привет, Гость.
Предлагаем пройти революционный курс по гитаре.
Подарок от PrimaNota.Ru, забирай!