PrimaNota.ru - самый крупный в мире бесплатный архив песенных текстов, аккордов, табулатур и нот


Frank Zappa - Andy - текст песни, таба, видео

Регистрация Запомнить меня
Войти через:  Facebook Google Twitter Vk Yandex Mail.ru

Frank Zappa - Andy - текст песни, таба, видео

Печатать
Просмотров: 169
-----------------------------------------------------------------------------
                             ANDY - Frank Zappa
-----------------------------------------------------------------------------
Tabbed by: kennezar (Kenneth Dale Harris IV)
Email: kenny4@kdharris.net

Tuning: Standard

e|-------------------------------------|
B|-------------------------------------|
G|-------------------------------------|
D|--7--7~---9--9~----7-7-7-7~--9-9~----|
A|--7--7~---9--9~----7-7-7-7~--9-9~----|
E|--5--5~---7--7~----5-5-5-5~--7-7~----|
                           1st and 3rd     2nd and 4th time
e|--2h5p2p0---------------|---------------|-----------10-------|
B|----------4h5p4p0-------|--12-10-12~----|--12-10-12-----12~--|
G|------------------4~----|---------------|--------------------|
D|------------------------|---------------|--------------------|
A|------------------------|---------------|--------------------|
E|------------------------|---------------|--------------------|

e|------------------------------------------------------------------------|
B|------------------------------------------------------------------------|
G|------------------------------------------------------------------------|
D|--------------------------2-4^5-2-4-2--------------------------9~-12~---|
A|---------2-2h4-2---0--4-4-------------4--------2-2h4-2---2-4~--9~-12~---|
E|--0--4-4---------4-----------------------0--4-4--------4-------7~-10~---|
  1st                                 2nd
e|-----------------------------------|----------------------------10------|
B|----------------------12-10-12~----|-------------------12-10-12-----12~-|
G|-----------------------------------|------------------------------------|
D|---9-9--9-9-9~---------------------|----9-9--9-9-9~---------------------|
A|---9-9--9-9-9~---------------------|----9-9--9-9-9~---------------------|
E|---7-7--7-7-7~---------------------|----7-7--7-7-7~---------------------|
                           3rd          4th   
e|--2h5p2p0---------------|------------|-----------10-------|
B|----------4h5p4p0-------|--12-10-12~-|--12-10-12-----12~--|
G|------------------4~----|------------|--------------------|
D|------------------------|------------|--------------------|
A|------------------------|------------|--------------------|
E|------------------------|------------|--------------------|

e|-------------------------------------------------------|
B|-------------------------------------------------------|
G|-------------------------------------------------------|
D|--7-7~--7-7-7-7~-7-7~--9-9~--7-7~--9-9~----------------|
A|--7-7~--7-7-7-7~-7-7~--9-9~--7-7~--9-9~----------------|
E|--5-5~--5-5-5-5~-5-5~--7-7~--5-5~--7-7~----------------|

e|-------------------------------------------------------|
B|-------------------------------------------------------|
G|---9-9-9-9-9-9-9-9-9/11-11-11-11-11-11-11-11-11--------|
D|---9-9-9-9-9-9-9-9-9/11-11-11-11-11-11-11-11-11--------|
A|---9-9-9-9-9-9-9-9-9/11-11-11-11-11-11-11-11-11--------|
E|-------------------------------------------------------|
Repeat this as needed.
e|--------4-----5p4--------------4-----7p5p4------------|---------|
B|--4h5h7---7-5-----7-5-5--4h5h7---7-5-------7-5-5------|---3~~~--|
G|------------------------------------------------------|---------|
D|------------------------------------------------------|---------|
A|------------------------------------------------------|---------|
E|------------------------------------------------------|---------|
                      1st and 3rd     2nd and 4th time
e|--2h5p2p0---------------|---------------|-----------10-------|
B|----------4h5p4p0-------|--12-10-12~----|--12-10-12-----12~--|
G|------------------4~----|---------------|--------------------|
D|------------------------|---------------|--------------------|
A|------------------------|---------------|--------------------|
E|------------------------|---------------|--------------------|
Repeat this (slow organ part) four times.
e|-----------------------------------------------|
B|-----------------------------------------------|
G|---9~-8~--------6~-----------------------------|
D|---------6~--9~----6-4-4~----------------------|
A|-----------------------------------------------|
E|-----------------------------------------------|
Play this on the fourth time around.
e|--------------------------------------------------------------------------|
B|--------------------------------------------------------------------------|
G|--9~-8~--------6~---4p1---------------------------------------------------|
D|--------6~--9~----------4-2-4~-----------------6h9p6----------------------|
A|--------------------------------/11~-9~-7~--7h9------9-9p7---9~-7~------9~|
E|-----------------------------------------------------------9-------9~-7---|
Solo.
e|-----------------------------------------------------------|
B|---12-10~--7-----------------------------------------------|
G|-------------9^11-9-8--------------------------------------|
D|----------------------7h9~--7~--9p7------------------------|
A|------------------------------------9p7p6h7--6h7p6\4~------|
E|------------------------------------------------------7/9~-|

e|------7h10p7--7h10p7--7h10p7--7h10p7--7h10p7--7h10p7--7h10p7--7h10p7----|
B|--7h10------10------10------10------10------10------10------10------10--|
G|------------------------------------------------------------------------|
D|------------------------------------------------------------------------|
A|------------------------------------------------------------------------|
E|------------------------------------------------------------------------|
This is actually different from the regular solo, but if you play it with the
right timing you won't tell the difference it'll just sound a little cleaner.
e|-7h10p7----------------------------|
B|--------10-------------------------|
G|-----------9^11--9-8---------------|
D|---------------------7/9~----------|
A|-----------------------------------|
E|-----------------------------------|

e|-------------------------------------------------------------------------|
B|-------------------------------------------------------------------------|
G|--9-9-9-9-8h9p8---9-9-9-9-8h9p8--9-9-9-9-8h9p8--9-9-9-9-8h9p8--9/11------|
D|-------------------------------------------------------------------------|
A|-------------------------------------------------------------------------|
E|-------------------------------------------------------------------------|

e|--------4-----5p4--------------4-----7p5p4------------|---------|
B|--4h5h7---7-5-----7-5-5--4h5h7---7-5-------7-5-5------|---3~~~--|
G|------------------------------------------------------|---------|
D|------------------------------------------------------|---------|
A|------------------------------------------------------|---------|
E|------------------------------------------------------|---------|
                            1st          2nd  
e|--2h5p2p0---------------|------------|-----------10-------|
B|----------4h5p4p0-------|--12-10-12~-|--12-10-12-----12~--|
G|------------------4~----|------------|--------------------|
D|------------------------|------------|--------------------|
A|------------------------|------------|--------------------|
E|------------------------|------------|--------------------|

e|-------------------|
B|-------------------|
G|-------------------|
D|--7-7~--7-7-7-7~---|
A|--7-7~--7-7-7-7~---|
E|--5-5~--5-5-5-5~---|

e|-------------------------------------------------------|
B|-------------------------------------------------------|
G|---9-9-9-9-9-9-9-9-9/11-11-11-11-11-11-11-11-11--------|
D|---9-9-9-9-9-9-9-9-9/11-11-11-11-11-11-11-11-11--------|
A|---9-9-9-9-9-9-9-9-9/11-11-11-11-11-11-11-11-11--------|
E|-------------------------------------------------------|
Repeat as needed.
e|--------------------------------------------------------------|
B|--------------------------------------------------------------|
G|-----------------------------------9~--------------9~---------|
D|--11p9---11p9--11p9--11p9--11p9-------11-9----9h11----11~-----|
A|-------11----11----11----11----11----------11-----------------|
E|--------------------------------------------------------------|
Repeat this until the end of the song!
e|-------------------------------------------|
B|-------------------------------------------|
G|--------------------------2----------------|
D|---4-4-----4-4-----4-4------4-2------------|
A|--------------------------------4-3-2------|
E|-2-----2-2-----2-2-----2--------------5----|


| /  slide up
| \  slide down
| h  hammer-on
| p  pull-off
| ~  vibrato
| +  harmonic
| x  Mute note
=============================================================================






Добавлено: 02.05.2012
Другие материалы по этой песне:

Страница создана 02.03.2012
http://primanota.ru/frank-zappa/andy-chords.htm
Привет, Гость.
Предлагаем пройти революционный курс по гитаре.
Подарок от PrimaNota.Ru, забирай!