PrimaNota.ru - самый крупный в мире бесплатный архив песенных текстов, аккордов, табулатур и нот


Frank Zappa - A Pound For A Brown (On The Bus) - текст песни, бас-таба, видео

Регистрация Запомнить меня
Войти через:  Facebook Google Twitter Vk Yandex Mail.ru

Frank Zappa - A Pound For A Brown (On The Bus) - текст песни, бас-таба, видео

Печатать
Просмотров: 50
Уроки эстрадного вокала в Санкт-Петербурге
Авторы музыки: Frank Zappa

-------------------------------------------------------------------------------
    A Pound For A Brown On The Bus - Frank Zappa & The Mothers Of Invention
-------------------------------------------------------------------------------
Tabbed by: Jacque
E-mail: Imbatman1312@gmail.com

Tuning: Standard

This is the uncle meat version, shorter than most of the alternate variations but it's the 
bare bones of the other brilliant versions. This version is also incredibly hard in some places.

G|-------------------------------17-15-13-12--|
D|----15-15----15-15-15----15-15--------------|
A|-13-------13----------13--------------------|
E|--------------------------------------------|

G|-------------------------------17-15-13-12--|
D|----15-15----15-15-15----15-15--------------|
A|-13-------13----------13--------------------|
E|--------------------------------------------|

G|-------13-------13-15-------13-------13-15---|
D|----------------------------------15---------|
A|-13-------13----------13-------13------------|
E|----13-------13----------13------------------|

G|-------13-------13-15-------13-------13-15---|
D|----15-------15----------15-------15---------|
A|-13-------13----------13-------13------------| Repeat this until 0:41
E|---------------------------------------------|

G|-----------------13-12---|
D|-----13----15-13---------|
A|--13----13---------------|
E|-------------------------|

G|------------------------------------------------|
D|----12-12----12-12-12----12----12----12-12-12---|
A|-10-------10----------10----10----10------------| Repeat and vary until end
E|------------------------------------------------|


| /  slide up
| \  slide down
| h  hammer-on
| p  pull-off
| ~  vibrato
| +  harmonic
| x  Mute note
===============================================================================
Добавлено: 08.02.2016
Другие материалы по этой песне:
  • Аккорды и текст

Страница создана 14.07.2012
http://primanota.ru/frank-zappa/a-pound-for-a-brown-on-the-bus-chords.htm
Привет, Гость.
Предлагаем пройти революционный курс по гитаре.
Подарок от PrimaNota.Ru, забирай!