PrimaNota.ru - самый крупный в мире бесплатный архив песенных текстов, аккордов, табулатур и нот


Frank Turner - This Town Ain't Big Enough For The One Of Me - текст песни, таба, видео

Регистрация Запомнить меня
Войти через:  Facebook Google Twitter Vk Yandex Mail.ru

Frank Turner - This Town Ain't Big Enough For The One Of Me - текст песни, таба, видео

Печатать
Просмотров: 97
Tabbed By: crazyguitarman3

Tuning: Standard (E A D G B E)

Verse 1:
"A free house, sound system and a..."
E|--------------------------------------|
B|--------------------------------------|
G|--------------------------------------|
D|-2--2-2--2-2--2-2--2-2--2-2--2-2--2-2-|
A|-2--2-4--2-2--2-4--2-2--2-4--2-2--2-4-|
E|-0--0-0--0-0--0-0--0-0--0-0--0-0--0-0-|

E|-----------------------------|
B|-----------------------------|
G|-----------------------------|
D|--------6--6-9-6--6----------|
A|-7--7-9-x--x-x-x--x-9-7--7-7-|
E|-0--0-0-0--0-0-0--0-0-0--0-0-|

"I've known how this story..."
E|-----------------------------|
B|-----------------------------|
G|-6--6-x-4--4-x-2--2-x-2--2-2-|
D|-7--7-x-6--6-x-4--4-x-2--2-2-|
A|-7--7-x-6--6-x-4--4-x-0--0-0-|
E|-5--5-x-4--4-x-2--2-x--------|

E|--------------------------------------|
B|--------------------------------------|
G|--------------------------------------|
D|-2--2-2--2-2--2-2--2-2--2-2--2-2--2-2-|
A|-2--2-4--2-2--2-4--2-2--2-4--2-2--2-4-|
E|-0--0-0--0-0--0-0--0-0--0-0--0-0--0-0-|

"The night lays out before..."
E|----------------------------|
B|-4--4-4--4-4-4-5--5-5-5-5-4-|
G|-2--2-2--2-2-2-6--6-6-6-6-2-|
D|-4--4-4--4-4-4-6--6-6-6-6-4-|
A|-2--2-2--2-2-2-4--4-4-4-4-2-|
E|----------------------------|

"There's no new faces and no..."
E|-----------------------------|
B|-2--2-2--2-2-2-2--2-2--2-2-2-|
G|-2--2-2--2-2-2-0--0-0--0-0-0-|
D|-2--2-2--2-2-2-2--2-2--2-2-2-|
A|-0--0-0--0-0-0-0--0-0--0-0-0-|
E|-----------------------------|

"This town's growing old with..."
E|-------------------------------|
B|------------------4-4--2-2-2-2-|
G|------------------2-2--2-2-2-2-|
D|-2--2-2--2-2--2-2-4-4--2-2-2-2-|
A|-2--2-4--2-2--2-4-2-2--0-0-0-0-|
E|-0--0-0--0-0--0-0--------------|

E|------------------------2-2--2-2-|
B|------------------------x-x--x-x-|
G|------------------------2-2--2-2-|
D|-2--2-2--2-2--2-2--2-2--1-1--1-1-|
A|-2--2-4--2-2--2-4--2-2--2-2--2-2-|
E|-0--0-0--0-0--0-0--0-0-----------|

"Everybody 'round here's been out with..."
E|--------------------------------------|
B|--------------------------------------|
G|--------------------------------------|
D|-2--2-2--2-2--2-2--2-2--2-2--2-2--2-2-|
A|-2--2-4--2-2--2-4--2-2--2-4--2-2--2-4-|
E|-0--0-0--0-0--0-0--0-0--0-0--0-0--0-0-|

E|-----------------------------|
B|-----------------------------|
G|-----------------------------|
D|--------6--6-9-6--6----------|
A|-7--7-9-x--x-x-x--x-9-7--7-7-|
E|-0--0-0-0--0-0-0--0-0-0--0-0-|

"So talking to girls is..."
E|-----------------------------|
B|-----------------------------|
G|-6--6-x-4--4-x-2--2-x-2--2-2-|
D|-7--7-x-6--6-x-4--4-x-2--2-2-|
A|-7--7-x-6--6-x-4--4-x-0--0-0-|
E|-5--5-x-4--4-x-2--2-x--------|

E|--------------------------------------|
B|--------------------------------------|
G|--------------------------------------|
D|-2--2-2--2-2--2-2--2-2--2-2--2-2--2-2-|
A|-2--2-4--2-2--2-4--2-2--2-4--2-2--2-4-|
E|-0--0-0--0-0--0-0--0-0--0-0--0-0--0-0-|

"They've been in this gene..."
E|----------------------------|
B|-4--4-4--4-4-4-5--5-5-5-5-4-|
G|-2--2-2--2-2-2-6--6-6-6-6-2-|
D|-4--4-4--4-4-4-6--6-6-6-6-4-|
A|-2--2-2--2-2-2-4--4-4-4-4-2-|
E|----------------------------|

"I don't want all her exes..."
E|-----------------------------|
B|-2--2-2--2-2-2-2--2-2--2-2-2-|
G|-2--2-2--2-2-2-0--0-0--0-0-0-|
D|-2--2-2--2-2-2-2--2-2--2-2-2-|
A|-0--0-0--0-0-0-0--0-0--0-0-0-|
E|-----------------------------|

"There's millions more fish..."
E|-------------------------------|
B|------------------4-4--2-2-2-2-|
G|------------------2-2--2-2-2-2-|
D|-2--2-2--2-2--2-2-4-4--2-2-2-2-|
A|-2--2-4--2-2--2-4-2-2--0-0-0-0-|
E|-0--0-0--0-0--0-0--------------|

E|------------------------2-2--2-2-|
B|------------------------x-x--x-x-|
G|------------------------2-2--2-2-|
D|-2--2-2--2-2--2-2--2-2--1-1--1-1-|
A|-2--2-4--2-2--2-4--2-2--2-2--2-2-|
E|-0--0-0--0-0--0-0--0-0-----------|

Chorus:
"'Cause I'm bored of this town, I'm bored of this scene..."
E|---------------------------------------------------------|
B|---------------------------------------------------------|
G|-9--9-9--9-9-9-8--8-8--8-8-8-6--6-6--6-6-6---------------|
D|-9--9-9--9-9-9-9--9-9--9-9-9-9--9-9--9-9-9-6--6-6--6-6-6-|
A|-7--7-7--7-7-7-7--7-7--7-7-7-7--7-7--7-7-7-7--7-7--7-7-7-|
E|---------------------------------------------------------|

"'Cause I'm bored of this town, I'm bored of this scene..."
E|---------------------------------------------------------|
B|---------------------------------------------------------|
G|-9--9-9--9-9-9-8--8-8--8-8-8-6--6-6--6-6-6---------------|
D|-9--9-9--9-9-9-9--9-9--9-9-9-9--9-9--9-9-9-6--6-6--6-6-6-|
A|-7--7-7--7-7-7-7--7-7--7-7-7-7--7-7--7-7-7-7--7-7--7-7-7-|
E|---------------------------------------------------------|

"I'm an expert at pretending that everything is okay"
E|---------------------------------------------------------|
B|---------------------------------------------------------|
G|-2--2-2--2-2-2-2--2-2--2-2-2-8--8-8--8-8-8-8--8-8--8-8-8-|
D|-4--4-4--4-4-4-4--4-4--4-4-4-9--9-9--9-9-9-9--9-9--9-9-9-|
A|-4--4-4--4-4-4-4--4-4--4-4-4-9--9-9--9-9-9-9--9-9--9-9-9-|
E|-2--2-2--2-2-2-2--2-2--2-2-2-7--7-7--7-7-7-7--7-7--7-7-7-|

"But I'm just a kid and it seems as if I've signed my..."
E|---------------------------------------------------------|
B|---------------------------------------------------------|
G|-2--2-2--2-2-2-2--2-2--2-2-2-8--8-8--8-8-8-8--8-8--8-8-8-|
D|-4--4-4--4-4-4-4--4-4--4-4-4-9--9-9--9-9-9-9--9-9--9-9-9-|
A|-4--4-4--4-4-4-4--4-4--4-4-4-9--9-9--9-9-9-9--9-9--9-9-9-|
E|-2--2-2--2-2-2-2--2-2--2-2-2-7--7-7--7-7-7-7--7-7--7-7-7-|

"I need to get out and see what the rest of this world's about"
E|------------------------------------------------------------------------|
B|------------------------------------------------------------------------|
G|-4--4-4-4-4-4-4-4-4-4-4-4-4-4-4-9---9--9---9--9--9--9---9--9---9--9--9--|
D|-6--6-6-6-6-6-6-6-6-6-6-6-6-6-6-11--11-11--11-11-11-11--11-11--11-11-11-|
A|-6--6-6-6-6-6-6-6-6-6-6-6-6-6-6-11--11-11--11-11-11-11--11-11--11-11-11-|
E|-4--4-4-4-4-4-4-4-4-4-4-4-4-4-4-9---9--9---9--9--9--9---9--9---9--9--9--|

"This town ain't big enough for the one of me, so I'm making..."
E|----------------------------------------------------2-2--2-2-|
B|-4--4-4-4--4-4-2--2-2--2-2-2------------------------x-x--x-x-|
G|-2--2-2-2--2-2-2--2-2--2-2-2------------------------2-2--2-2-|
D|-4--4-4-4--4-4-2--2-2--2-2-2-2--2-2--2-2--2-2--2-2--1-1--1-1-|
A|-2--2-2-2--2-2-0--0-0--0-0-0-2--2-4--2-2--2-4--2-2--2-2--2-2-|
E|-----------------------------0--0-0--0-0--0-0--0-0-----------|

Verse 2:
"Every guy with long hair around here..."
E|--------------------------------------|
B|--------------------------------------|
G|--------------------------------------|
D|-2--2-2--2-2--2-2--2-2--2-2--2-2--2-2-|
A|-2--2-4--2-2--2-4--2-2--2-4--2-2--2-4-|
E|-0--0-0--0-0--0-0--0-0--0-0--0-0--0-0-|

E|-----------------------------|
B|-----------------------------|
G|-----------------------------|
D|--------6--6-9-6--6----------|
A|-7--7-9-x--x-x-x--x-9-7--7-7-|
E|-0--0-0-0--0-0-0--0-0-0--0-0-|

"According to his girlfriend..."
E|-----------------------------|
B|-----------------------------|
G|-6--6-x-4--4-x-2--2-x-2--2-2-|
D|-7--7-x-6--6-x-4--4-x-2--2-2-|
A|-7--7-x-6--6-x-4--4-x-0--0-0-|
E|-5--5-x-4--4-x-2--2-x--------|

E|--------------------------------------|
B|--------------------------------------|
G|--------------------------------------|
D|-2--2-2--2-2--2-2--2-2--2-2--2-2--2-2-|
A|-2--2-4--2-2--2-4--2-2--2-4--2-2--2-4-|
E|-0--0-0--0-0--0-0--0-0--0-0--0-0--0-0-|

"And if anybody gets out..."
E|----------------------------|
B|-4--4-4--4-4-4-5--5-5-5-5-4-|
G|-2--2-2--2-2-2-6--6-6-6-6-2-|
D|-4--4-4--4-4-4-6--6-6-6-6-4-|
A|-2--2-2--2-2-2-4--4-4-4-4-2-|
E|----------------------------|

"I don't want to get suck..."
E|-----------------------------|
B|-2--2-2--2-2-2-2--2-2--2-2-2-|
G|-2--2-2--2-2-2-0--0-0--0-0-0-|
D|-2--2-2--2-2-2-2--2-2--2-2-2-|
A|-0--0-0--0-0-0-0--0-0--0-0-0-|
E|-----------------------------|

"I'm sick of these..."
E|-------------------------------|
B|------------------4-4--2-2-2-2-|
G|------------------2-2--2-2-2-2-|
D|-2--2-2--2-2--2-2-4-4--2-2-2-2-|
A|-2--2-4--2-2--2-4-2-2--0-0-0-0-|
E|-0--0-0--0-0--0-0--------------|

E|------------------------2-2--2-2-|
B|------------------------x-x--x-x-|
G|------------------------2-2--2-2-|
D|-2--2-2--2-2--2-2--2-2--1-1--1-1-|
A|-2--2-4--2-2--2-4--2-2--2-2--2-2-|
E|-0--0-0--0-0--0-0--0-0-----------|

Bridge:
"And I still want to be buried here just like I said"
E|---------------------------------------------------------------|
B|-5--5-5-5-5-5-5-5-5-5-5-5-5-5-5-2--2-2-2-2-2-2-2-2-2-2-2-2-2-2-|
G|-6--6-6-6-6-6-6-6-6-6-6-6-6-6-6-3--3-3-3-3-3-3-3-3-3-3-3-3-3-3-|
D|-6--6-6-6-6-6-6-6-6-6-6-6-6-6-6-4--4-4-4-4-4-4-4-4-4-4-4-4-4-4-|
A|-4--4-4-4-4-4-4-4-4-4-4-4-4-4-4-x--x-x-x-x-x-x-x-x-x-x-x-x-x-x-|
E|--------------------------------2--2-2-2-2-2-2-2-2-2-2-2-2-2-2-|

"But I'd prefer it if you'd wait until I'm actually dead"
E|---------------------------------------------------------------|
B|-5--5-5-5-5-5-5-5-5-5-5-5-5-5-5-2--2-2-2-2-2-2-2-2-2-2-2-2-2-2-|
G|-6--6-6-6-6-6-6-6-6-6-6-6-6-6-6-3--3-3-3-3-3-3-3-3-3-3-3-3-3-3-|
D|-6--6-6-6-6-6-6-6-6-6-6-6-6-6-6-4--4-4-4-4-4-4-4-4-4-4-4-4-4-4-|
A|-4--4-4-4-4-4-4-4-4-4-4-4-4-4-4-x--x-x-x-x-x-x-x-x-x-x-x-x-x-x-|
E|--------------------------------2--2-2-2-2-2-2-2-2-2-2-2-2-2-2-|

"It's easy to get caught inside a town that seems to have a..."
E|----------------------------------------------2-2-2-2--2-2-2-|
B|-------------------------------1-1-1-1--1-1-1-3-3-3-3--3-3-3-|
G|-2-2-2-2--2-2-2-4-4-4-4--4-4-4-0-0-0-0--0-0-0-2-2-2-2--2-2-2-|
D|-2-2-2-2--2-2-2-2-2-2-2--2-2-2-2-2-2-2--2-2-2-0-0-0-0--0-0-0-|
A|-0-0-0-0--0-0-0-2-2-2-2--2-2-2-3-3-3-3--3-3-3----------------|
E|-------------------------------------------------------------|

"I'm packing up and I'm moving on. When I move out from my..."
E|----------------------------------------------2-2-2-2--2-2-2-|
B|-------------------------------1-1-1-1--1-1-1-3-3-3-3--3-3-3-|
G|-2-2-2-2--2-2-2-4-4-4-4--4-4-4-0-0-0-0--0-0-0-2-2-2-2--2-2-2-|
D|-2-2-2-2--2-2-2-2-2-2-2--2-2-2-2-2-2-2--2-2-2-0-0-0-0--0-0-0-|
A|-0-0-0-0--0-0-0-2-2-2-2--2-2-2-3-3-3-3--3-3-3----------------|
E|-------------------------------------------------------------|

E|---------------------------------------------------------|
B|-----------------------------2--2-2--2-2-2-4--4-4-4--4-4-|
G|-1--1-1--1-1-1-1--1-1--1-1-1-2--2-2--2-2-2-2--2-2-2--2-2-|
D|-2--2-2--2-2-2-2--2-2--2-2-2-2--2-2--2-2-2-4--4-4-4--4-4-|
A|-2--2-2--2-2-2-2--2-2--2-2-2-0--0-0--0-0-0-2--2-2-2--2-2-|
E|-0--0-0--0-0-0-0--0-0--0-0-0-----------------------------|

E|---------------------------------------------------------|
B|-----------------------------2--2-2--2-2-2-4--4-4-4--4-4-|
G|-1--1-1--1-1-1-1--1-1--1-1-1-2--2-2--2-2-2-2--2-2-2--2-2-|
D|-2--2-2--2-2-2-2--2-2--2-2-2-2--2-2--2-2-2-4--4-4-4--4-4-|
A|-2--2-2--2-2-2-2--2-2--2-2-2-0--0-0--0-0-0-2--2-2-2--2-2-|
E|-0--0-0--0-0-0-0--0-0--0-0-0-----------------------------|

Chorus:
"'Cause I'm bored of this town, I'm bored of this scene..."
E|---------------------------------------------------------|
B|---------------------------------------------------------|
G|-9--9-9--9-9-9-8--8-8--8-8-8-6--6-6--6-6-6---------------|
D|-9--9-9--9-9-9-9--9-9--9-9-9-9--9-9--9-9-9-6--6-6--6-6-6-|
A|-7--7-7--7-7-7-7--7-7--7-7-7-7--7-7--7-7-7-7--7-7--7-7-7-|
E|---------------------------------------------------------|

"'Cause I'm bored of this town, I'm bored of this scene..."
E|---------------------------------------------------------|
B|---------------------------------------------------------|
G|-9--9-9--9-9-9-8--8-8--8-8-8-6--6-6--6-6-6---------------|
D|-9--9-9--9-9-9-9--9-9--9-9-9-9--9-9--9-9-9-6--6-6--6-6-6-|
A|-7--7-7--7-7-7-7--7-7--7-7-7-7--7-7--7-7-7-7--7-7--7-7-7-|
E|---------------------------------------------------------|

"I'm an expert at pretending that everything is okay"
E|---------------------------------------------------------|
B|---------------------------------------------------------|
G|-2--2-2--2-2-2-2--2-2--2-2-2-8--8-8--8-8-8-8--8-8--8-8-8-|
D|-4--4-4--4-4-4-4--4-4--4-4-4-9--9-9--9-9-9-9--9-9--9-9-9-|
A|-4--4-4--4-4-4-4--4-4--4-4-4-9--9-9--9-9-9-9--9-9--9-9-9-|
E|-2--2-2--2-2-2-2--2-2--2-2-2-7--7-7--7-7-7-7--7-7--7-7-7-|

"But I'm just a kid and it seems as if I've signed my..."
E|---------------------------------------------------------|
B|---------------------------------------------------------|
G|-2--2-2--2-2-2-2--2-2--2-2-2-8--8-8--8-8-8-8--8-8--8-8-8-|
D|-4--4-4--4-4-4-4--4-4--4-4-4-9--9-9--9-9-9-9--9-9--9-9-9-|
A|-4--4-4--4-4-4-4--4-4--4-4-4-9--9-9--9-9-9-9--9-9--9-9-9-|
E|-2--2-2--2-2-2-2--2-2--2-2-2-7--7-7--7-7-7-7--7-7--7-7-7-|

"I need to get out and see what the rest of this world's about"
E|------------------------------------------------------------------------|
B|------------------------------------------------------------------------|
G|-4--4-4-4-4-4-4-4-4-4-4-4-4-4-4-9---9--9---9--9--9--9---9--9---9--9--9--|
D|-6--6-6-6-6-6-6-6-6-6-6-6-6-6-6-11--11-11--11-11-11-11--11-11--11-11-11-|
A|-6--6-6-6-6-6-6-6-6-6-6-6-6-6-6-11--11-11--11-11-11-11--11-11--11-11-11-|
E|-4--4-4-4-4-4-4-4-4-4-4-4-4-4-4-9---9--9---9--9--9--9---9--9---9--9--9--|

"This town ain't big enough for the one of me, so I'm making..."
E|------------------------------------------------------------------|
B|-4--4-4-4--4-4-2--2-2--2-2-2--------------------------------------|
G|-2--2-2-2--2-2-2--2-2--2-2-2--------------------------------------|
D|-4--4-4-4--4-4-2--2-2--2-2-2-2--2-2--2-2--2-2--2-2--2-2--2-2--2-2-|
A|-2--2-2-2--2-2-0--0-0--0-0-0-2--2-4--2-2--2-4--2-2--2-4--2-2--2-4-|
E|-----------------------------0--0-0--0-0--0-0--0-0--0-0--0-0--0-0-|

Outro:
"This town ain't big enough..."
E|-------------------------------|
B|-2--2-2-2-2-2-2-4--4-4-4-4-4-4-|
G|-2--2-2-2-2-2-2-2--2-2-2-2-2-2-|
D|-2--2-2-2-2-2-2-4--4-4-4-4-4-4-|
A|-0--0-0-0-0-0-0-2--2-2-2-2-2-2-|
E|-------------------------------|

"Why don't you get from in..."
E|-------------------------------|
B|----------------5--5-5-5-5-5-5-|
G|-4--4-4-4-4-4-4-6--6-6-6-6-6-6-|
D|-6--6-6-6-6-6-6-6--6-6-6-6-6-6-|
A|-6--6-6-6-6-6-6-4--4-4-4-4-4-4-|
E|-4--4-4-4-4-4-4----------------|

We're all going to move to London anyway..."
E|-----------------------------------------------------------0|
B|-4--4-4-4--4-4-2--2-2--2-2-2-------------------------------0|
G|-2--2-2-2--2-2-2--2-2--2-2-2-------------------------------1|
D|-4--4-4-4--4-4-2--2-2--2-2-2-2--2-2--2-2--2-2--2-----------2|
A|-2--2-2-2--2-2-0--0-0--0-0-0-2--2-4--2-2--2-4--2-2-0-0-0---2|
E|-----------------------------0--0-0--0-0--0-0--0-0-0-4-0---0|
Добавлено: 02.10.2015
Другие материалы по этой песне:
  • Аккорды и текст

Страница создана 07.07.2012
http://primanota.ru/frank-turner/this-town-aint-big-enough-for-the-one-of-me-chords.htm
Привет, Гость.
Предлагаем пройти революционный курс по гитаре.
Подарок от PrimaNota.Ru, забирай!