PrimaNota.ru - самый крупный в мире бесплатный архив песенных текстов, аккордов, табулатур и нот


Frank Turner - The Next Round - аккорды и текст, таба, видео

Регистрация Запомнить меня
Войти через:  Facebook Google Twitter Vk Yandex Mail.ru

Frank Turner - The Next Round - аккорды и текст, таба, видео

Печатать
Просмотров: 234
Уроки эстрадного вокала в Санкт-Петербурге
The Next Round
Frank Turner
The Next Round
Frank Turner
Rock & Roll EP

Tabbed by Isaac Lister

Tuning: Standard (EADGBE)

Chords Used:

Am    (x-0-2-2-1-0)
G     (3-2-0-0-3-3)
B7    (x-2-1-2-0-2)
Em    (0-2-2-0-0-0)
F#7   (x-4-3-4-2-x)
C     (x-3-2-0-1-0)
D     (x-x-0-2-3-2)
Cm    (x-3-5-5-4-3)
G7    (3-2-0-0-0-1)
C11   (x-3-2-0-1-3)
Csus2 (x-3-5-5-3-3)


E-----------0------------------------3-------------------|
B-----------1------------------------3-------------------|
G--2/4\2-0--2---------------2/4\2-0--0-------------------|
D-----------2------------------------0-------------------|
A-----------0------------------------2-------------------|
E------------------------------------3-------------------|
 (I drink...thirsty)      (I drink...dry)


                  Am
I drink cause I'm thirsty
                  G
I drink cause I'm dry
                  Am
I'm not yet quite thirty
                    G
But I feel like I'm dying

                     Am          G
I drink cause I want to, cause I need to,
        Am         B7           Em
Cause I don't know what else to do
        F#7           C
With my time, I won't say it
        D            G     D  G
You can see it in my eyes.

(Same chords)

You drink cause you're lonely
You drink cause you're sad
You always claim every party
Was the best time you've ever had

You drink cause you're scared of
A life of living off your own company
You won't say it but I can see it in your eyes.

Middle 8

Am            Cm             G       G7
Of all of the things I could become
Am       Cm             G     
A lonely drunkard isn't one
Dm               C       C11
Which I would've wished
           G
When I was young

(Same chords)

Drink has drunk my days away
I tried to live like Hemingway
Life just doesn't work that way
Pills don't kill the pain
They just delay

(Back to Verse Chords)

We drink cause we're scared that
If we should stop
The good times will go away
But the bad times will not
What if it's over and we're sober
And we still feel like we're fixing to die
What then?
Don't say it cause I can see it in your eyes

BREAK

E-----------------------------------------------------|
B----3---3---3---10---10---10---8---8---8---8---8---8-|
G-----------------------------------------------------|
D-----------------------------------------------------|
A-----------------------------------------------------|
E--3---3---3---10---10---10---8---8---8---8---8---8---| (x4)

                    G   D   C
The next round's on me         (x4)

                    G   D   Csus2
The next round's on me         (x4)

E--3~--------------------3-----------------------|
B--3~--------------------3-----------------------|
G--5~-----------2/4\2-0--0-----------------------|
D--5~--------------------0-----------------------|
A--3~--------------------2-----------------------|
E------------------------3-----------------------|
Добавлено: 14.06.2012
Другие материалы по этой песне:
  • Аккорды и текст

Страница создана 15.03.2012
http://primanota.ru/frank-turner/the-next-round-chords.htm
Привет, Гость.
Предлагаем пройти революционный курс по гитаре.
Подарок от PrimaNota.Ru, забирай!