PrimaNota.ru - самый крупный в мире бесплатный архив песенных текстов, аккордов, табулатур и нот


Frank Turner - Sweet Albion Blues Live - таба, видео

Регистрация Запомнить меня
Войти через:  Facebook Google Twitter Vk Yandex Mail.ru

Frank Turner - Sweet Albion Blues Live - таба, видео

Печатать
Просмотров: 30
Frank Turner - Sweet Albion Blues
Live at the Round Chapel in Clapton, East London (2014).

The tab is for this recording:
https://www.youtube.com/watch?v=aYN5-iRcfU8

h = hammer-on
x = muted note

Tabbed by Isaac Murguia, December 2014.
Originally uploaded to Ultimate-Guitar.com
Contact: www.youtube.com/Goadiroth

INTRO: (E chord)
e|-0000---000---000-0000-|
B|-0000---000---000-0000-|
G|-1111---111---111-1111-|
D|-2220h2-220h2-222-0000-|
A|-2220h2-220h2-222-0000-|
E|-0000---000---000-2030-| [x4]

VERSE:
e|-0--------------------------------|
B|-0--------------------------------|
G|-1-xx-xxx-xxx-xxx-xxx-xxx-xxx-xxx-|
D|-2-xx-xxx-xxx-xxx-xxx-xxx-xxx-xxx-|
A|-2-xx-xxx-xxx-xxx-xxx-xxx-xxx-xxx-|
E|-0-xx-xxx-xxx-xxx-xxx-xxx-xxx-xxx-|

Repeat INTRO [x2]
Repeat VERSE
Repeat INTRO [x2]

CHORUS:
   A                                  E
e|-0000-000-000-000-000-000-000-000-|-0000-000-000-000-000-000-000-000-|
B|-2222-222-222-222-222-222-222-220-|-0000-000-000-000-000-000-000-000-|
G|-2222-222-222-222-222-222-222-220-|-1111-111-111-111-111-111-111-110-|
D|-2222-222-222-222-222-222-222-220-|-2222-222-222-222-222-222-222-220-|
A|-0000-000-000-000-000-000-000-000-|-2222-222-222-222-222-222-222-220-|
E|----------------------------------|-0000-000-000-000-000-000-000-000-|
   B7               A
e|-2222-222-222-220-0----------------|
B|-0000-000-000-000-2----------------|
G|-2222-222-222-220-2-xx-xxx-xxx-xxx-|
D|-1111-111-111-110-2-xx-xxx-xxx-xxx-|
A|-2222-222-222-220-0-xx-xxx-xxx-xxx-|
E|--------------------xx-xxx-xxx-xxx-|

Repeat INTRO [x2]
Repeat VERSE
Repeat INTRO [x2]
Repeat VERSE
Repeat INTRO [x2]

Repeat CHORUS
Repeat INTRO [x2]

BRIDGE: (not %100 but very close I think)
                  Em               Asus2                  Em  Asus2  Em
e|-3-0---0------------3-0---0------------|-3-0---0-----------------------------|
B|-----3-----0------------3-----0--0-000-|-----3-----0----000-000000-0-0000000-|
G|---------2---0--------------2----2-222-|---------2---0--000-220220-0-0000000-|
D|----------------22---------------2-222-|----------------222-220220-2-2222222-|
A|----------------22---------------0-000-|----------------222-000000-2-2222222-|
E|----------------00---------------------|----------------000--------0-0000000-|
                  Em               Asus2                  Em  Asus2  Em
e|-3-0---0------------3-0---0------------|-3-0---0------------------------------|
B|-----3-----0------------3-----0--0-000-|-----3-----0----000-0000000-0-0000000-|
G|---------2---0--------------2----2-222-|---------2---0--000-2202202-0-0000000-|
D|----------------22---------------2-222-|----------------222-2202202-2-2222222-|
A|----------------22---------------0-000-|----------------222-0000000-2-2222222-|
E|----------------00---------------------|----------------000---------0-0000000-|
                  Em               Asus2                  Em  A       E
e|-3-0---0------------3-0---0------------|-3-0---0------------0-00000-0-000-000-|
B|-----3-----0------------3-----0--0-000-|-----3-----0----000-2-22222-0-000-000-|
G|---------2---0--------------2----2-222-|---------2---0--000-2-22222-1-111-111-|
D|----------------22---------------2-222-|----------------222-2-22222-2-222-222-|
A|----------------22---------------0-000-|----------------222-0-00000-2-222-222-|
E|----------------00---------------------|----------------000---------0-000-000-|

CHORUS VARIATION:
   A                    A7           E
e|-0000-000-000-000-000-000000-000-|-0000-000-000-000-000-000-000-000-|
B|-2222-222-222-222-222-222222-222-|-0000-000-000-000-000-000-000-000-|
G|-2222-222-222-222-222-000000-000-|-1111-111-111-111-111-111-111-110-|
D|-2222-222-222-222-222-222222-222-|-2222-222-222-222-222-222-222-220-|
A|-0000-000-000-000-000-000000-000-|-2222-222-222-222-222-222-222-220-|
E|---------------------------------|-0000-000-000-000-000-000-000-000-|
   B7               A
e|-2222-222-222-220-0----------------|
B|-0000-000-000-000-2----------------|
G|-2222-222-222-220-2-xx-xxx-xxx-xxx-|
D|-1111-111-111-110-2-xx-xxx-xxx-xxx-|
A|-2222-222-222-220-0-xx-xxx-xxx-xxx-|
E|--------------------xx-xxx-xxx-xxx-|

OUTRO:
   E       Ab          A       B
e|-0-0-00x-4-444-444-|-0-0-00x-0-000-000-|
B|-0-0-00x-4-444-444-|-5-5-55x-7-777-777-|
G|-1-1-11x-5-555-555-|-6-6-66x-8-888-888-|
D|-2-2-22x-6-666-666-|-7-7-77x-9-999-999-|
A|-2-2-22x-6-666-666-|-7-7-77x-9-999-999-|
E|-0-0-00x-----------|-------------------| [x3]
   E       Ab          A       B     E
e|-0-0-00x-4-444-444-|-0-0-00x-0-----0--0-|
B|-0-0-00x-4-444-444-|-5-5-55x-7-----0--0-|
G|-1-1-11x-5-555-555-|-6-6-66x-8-----1--1-|
D|-2-2-22x-6-666-666-|-7-7-77x-9-----2--2-|
A|-2-2-22x-6-666-666-|-7-7-77x-9-----2--2-|
E|-0-0-00x-----------|---------------0--0-|

End. Please rate :D
Добавлено: 21.06.2015
Другие материалы по этой песне:
  • Аккорды и текст

Страница создана 21.06.2015
http://primanota.ru/frank-turner/sweet-albion-blues-live-chords.htm
Привет, Гость.
Предлагаем пройти революционный курс по гитаре.
Подарок от PrimaNota.Ru, забирай!