PrimaNota.ru - самый крупный в мире бесплатный архив песенных текстов, аккордов, табулатур и нот


Frank Turner - The Angel Islington - таба, видео

Регистрация Запомнить меня
Войти через:  Facebook Google Twitter Vk Yandex Mail.ru

Frank Turner - The Angel Islington - таба, видео

Печатать
Просмотров: 88
Авторы музыки: Frank Turner
Авторы текста: Frank Turner
Frank Turner - The Angel Islington

-INTRO-

e|----------------------------------------------------------------------------------|
B|--------3---------3---------3---------3---------3---------3---------3---------3---|
G|--------2---------2---------2---------2---------2---------2---------2---------2---|
D|---0---------0---------0---------0---------0---------0---------0---------0--------|
A|----------------------------------------------------------------------------------|
E|----------------------------------------------------------------------------------|

-VERSE-

     By        the       wa--------ters     of         the
e|-------------0---------2---------3---------2---------0--------|
B|---3----------------------------------------------------------|
G|--------------------------------------------------------------|
D|--------0---------0---------0---------0---------0---------0---|
A|--------------------------------------------------------------|
E|--------------------------------------------------------------|

     Thames
e|----------------------------------------------------------------------------------|
B|--------2---------2---------2---------2---------2---------2---------2---------2---|
G|--------2---------2---------2---------2---------2---------2---------2---------2---|
D|----------------------------------------------------------------------------------|
A|---0---------0---------0---------0---------0---------0---------0---------0--------|
E|----------------------------------------------------------------------------------|

     I         re--------solve     to        start     a-
e|-----------------------0---------2---------0------------------|
B|---2---------3---------------------------------------3--------|
G|--------------------------------------------------------------|
D|--------------------------------------------------------------|
A|--------0---------0---------0---------0---------0---------0---|
E|--------------------------------------------------------------|

    -gain                                                                       To
e|----------------------------------------------------------------------------------|
B|--------3---------3---------3---------3---------3---------3---------3---------3---|
G|--------2---------2---------2---------2---------2---------2---------2---------2---|
D|---0---------0---------0---------0---------0---------0---------0---------0--------|
A|----------------------------------------------------------------------------------|
E|----------------------------------------------------------------------------------|

     wash      my        feet      and       cleanse   my
e|-------------0---------2---------3---------2---------0--------|
B|---3----------------------------------------------------------|
G|--------------------------------------------------------------|
D|--------0---------0---------0---------0---------0---------0---|
A|--------------------------------------------------------------|
E|--------------------------------------------------------------|

     sins                                                                       to
e|----------------------------------------------------------------------------------|
B|--------2---------2---------2---------2---------2---------2---------2---------2---|
G|--------2---------2---------2---------2---------2---------2---------2---------2---|
D|----------------------------------------------------------------------------------|
A|---0---------0---------0---------0---------0---------0---------0---------0--------|
E|----------------------------------------------------------------------------------|

     lose      my        cob-------webs      on        the
e|-----------------------0---------2---------0------------------|
B|---2---------3---------------------------------------3--------|
G|--------------------------------------------------------------|
D|--------------------------------------------------------------|
A|--------0---------0---------0---------0---------0---------0---|
E|--------------------------------------------------------------|

     wind                                                                       to
e|----------------------------------------------------------------------------------|
B|--------0---------0---------0---------0---------0---------0---------0---------3---|
G|--------0---------0---------0---------0---------0---------0---------0---------0---|
D|----------------------------------------------------------------------------------|
A|----------------------------------------------------------------------------------|
E|---3---------3---------3---------3---------3---------3---------3---------3--------|

     fix       the       parts     of        me        I
e|-------------0---------2---------3---------2---------0--------|
B|---3----------------------------------------------------------|
G|--------------------------------------------------------------|
D|--------------------------------------------------------------|
A|--------------------------------------------------------------|
E|--------3---------3---------3---------3---------3---------3---|

     broke                                                                      to
e|----------------------------------------------------------------------------------|
B|--------2---------2---------2---------2---------2---------2---------2---------2---|
G|--------2---------2---------2---------2---------2---------2---------2---------2---|
D|----------------------------------------------------------------------------------|
A|---0---------0---------0---------0---------0---------0---------0---------0--------|
E|----------------------------------------------------------------------------------|

     speak     out       loud      the       things    I
e|-----------------------0---------2---------0------------------|
B|---2---------3---------------------------------------3--------|
G|--------------------------------------------------------------|
D|--------------------------------------------------------------|
A|--------0---------0---------0---------0---------0---------0---|
E|--------------------------------------------------------------|

     know                               I   ha----ven't     been      my        self
e|----------------------------------------------------------------------------------|
B|--------0---------0---------0---------0---------3---------3---------3---------3---|
G|--------0---------0---------0---------0---------0---------0---------0---------0---|
D|----------------------------------------------------------------------------------|
A|----------------------------------------------------------------------------------|
E|---3---------3---------3---------3---------3---------3---------3---------3--------|

e|----------------------------------------------------------------------------------|
B|--------3---------3---------3---------3---------3---------3---------3---------3---|
G|--------2---------2---------2---------2---------2---------2---------2---------2---|
D|---0---------0---------0---------0---------0---------0---------0---------0--------|
A|----------------------------------------------------------------------------------|
E|----------------------------------------------------------------------------------|

-VERSE-

     Wande-----ring      Rose------bury      A---------ven-
e|-------------0---------2---------3---------2---------0--------|
B|---3----------------------------------------------------------|
G|--------------------------------------------------------------|
D|--------0---------0---------0---------0---------0---------0---|
A|--------------------------------------------------------------|
E|--------------------------------------------------------------|

    -ue
e|----------------------------------------------------------------------------------|
B|--------2---------2---------2---------2---------2---------2---------2---------2---|
G|--------2---------2---------2---------2---------2---------2---------2---------2---|
D|----------------------------------------------------------------------------------|
A|---0---------0---------0---------0---------0---------0---------0---------0--------|
E|----------------------------------------------------------------------------------|

     I         could     on--------ly        think     of
e|-----------------------0---------2---------0------------------|
B|---2---------3---------------------------------------3--------|
G|--------------------------------------------------------------|
D|--------------------------------------------------------------|
A|--------0---------0---------0---------0---------0---------0---|
E|--------------------------------------------------------------|

     you
e|----------------------------------------------------------------------------------|
B|--------3---------3---------3---------3---------3---------3---------3---------3---|
G|--------2---------2---------2---------2---------2---------2---------2---------2---|
D|---0---------0---------0---------0---------0---------0---------0---------0--------|
A|----------------------------------------------------------------------------------|
E|----------------------------------------------------------------------------------|

     Fa--------cing      Sam-------uel       John------son
e|-------------0---------2---------3---------2---------0--------|
B|---3----------------------------------------------------------|
G|--------------------------------------------------------------|
D|--------0---------0---------0---------0---------0---------0---|
A|--------------------------------------------------------------|
E|--------------------------------------------------------------|

     down                                                                       A
e|----------------------------------------------------------------------------------|
B|--------2---------2---------2---------2---------2---------2---------2---------2---|
G|--------2---------2---------2---------2---------2---------2---------2---------2---|
D|----------------------------------------------------------------------------------|
A|---0---------0---------0---------0---------0---------0---------0---------0--------|
E|----------------------------------------------------------------------------------|

     soul      to        tie       around    Lon-------don
e|-----------------------0---------2---------0------------------|
B|---2---------3---------------------------------------3--------|
G|--------------------------------------------------------------|
D|--------------------------------------------------------------|
A|--------0---------0---------0---------0---------0---------0---|
E|--------------------------------------------------------------|

     town                                                                       A
e|----------------------------------------------------------------------------------|
B|--------0---------0---------0---------0---------0---------0---------0---------3---|
G|--------0---------0---------0---------0---------0---------0---------0---------0---|
D|----------------------------------------------------------------------------------|
A|----------------------------------------------------------------------------------|
E|---3---------3---------3---------3---------3---------3---------3---------3--------|

    smile     to        take      my        breath    a-
e|------------0---------2---------3---------2---------0---------|
B|---3----------------------------------------------------------|
G|--------------------------------------------------------------|
D|--------------------------------------------------------------|
A|--------------------------------------------------------------|
E|--------3---------3---------3---------3---------3---------3---|

    -way                                                                        And
e|----------------------------------------------------------------------------------|
B|--------2---------2---------2---------2---------2---------2---------2---------2---|
G|--------2---------2---------2---------2---------2---------2---------2---------2---|
D|----------------------------------------------------------------------------------|
A|---0---------0---------0---------0---------0---------0---------0---------0--------|
E|----------------------------------------------------------------------------------|

     drag      me        South     from      Holl------o-
e|-----------------------0---------2---------0------------------|
B|---2---------3---------------------------------------3--------|
G|--------------------------------------------------------------|
D|--------------------------------------------------------------|
A|--------0---------0---------0---------0---------0---------0---|
E|--------------------------------------------------------------|

    -way                                     You  and       no        one       else
e|----------------------------------------------------------------------------------|
B|--------0---------0---------0---------0---------3---------3---------3---------3---|
G|--------0---------0---------0---------0---------0---------0---------0---------0---|
D|----------------------------------------------------------------------------------|
A|----------------------------------------------------------------------------------|
E|---3---------3---------3---------3---------3---------3---------3---------3--------|

e|----------------------------------------------------------------------------------|
B|--------3---------3---------3---------3---------3---------3---------3---------3---|
G|--------2---------2---------2---------2---------2---------2---------2---------0---|
D|---0---------0---------0---------0---------0---------0---------0---------0--------|
A|----------------------------------------------------------------------------------|
E|----------------------------------------------------------------------------------|

-BRIDGE-

                              I'm  the  king                          of   a    king-
e|----------------------------------------------------------------------------------|
B|--------3---------3---------3---------3---------3---------3---------3---------3---|
G|--------0---------0---------0---------0---------0---------0---------0---------0---|
D|-------------4-------------------4-------------------4-------------------4--------|
A|----------------------------------------------------------------------------------|
E|---0-------------------0-------------------0-------------------0------------------|

         -dom                 of  mis---takes
e|----------------------------------------------------------------------------------|
B|--------3---------3---------3---------3---------3---------3---------3---------3---|
G|--------0---------0---------0---------0---------0---------0---------0---------0---|
D|-------------4-------------------4-------------------2-------------------2--------|
A|---2-------------------2-------------------0-------------------0------------------|
E|----------------------------------------------------------------------------------|

                                   I've bro------------ken  all            the  things
e|----------------------------------------------------------------------------------|
B|--------3---------3---------3---------3---------3---------3---------3---------3---|
G|--------0---------0---------0---------0---------0---------0---------0---------0---|
D|-------------4-------------------4-------------------4-------------------4--------|
A|----------------------------------------------------------------------------------|
E|---0-------------------0-------------------0-------------------0------------------|

               that I              can  break
e|----------------------------------------------------------------------------------|
B|--------3---------3---------3---------3---------3---------3---------3---------3---|
G|--------0---------0---------0---------0---------0---------0---------0---------0---|
D|-------------4-------------------4-------------------2-------------------2--------|
A|---2-------------------2-------------------0-------------------0------------------|
E|----------------------------------------------------------------------------------|

                              Fuck the  fishing                       I    will a-
e|----------------------------------------------------------------------------------|
B|--------3---------3---------3---------3---------3---------3---------3---------3---|
G|--------0---------0---------0---------0---------0---------0---------0---------0---|
D|-------------4-------------------4-------------------4-------------------4--------|
A|----------------------------------------------------------------------------------|
E|---0-------------------0-------------------0-------------------0------------------|

                             -b---dicate                              And  I'll meet
e|----------------------------------------------------------------------------------|
B|--------3---------3---------3---------3---------3---------3---------3---------3---|
G|--------0---------0---------0---------0---------0---------0---------0---------0---|
D|-------------4-------------------4-------------------2-------------------2--------|
A|---2-------------------2-------------------0-------------------0------------------|
E|----------------------------------------------------------------------------------|


               you  on             the  cor------------ner  of                  Up-
e|----------------------------------------------------------------------------------|
B|--------3---------3---------3---------3---------3---------3---------3---------3---|
G|--------0---------0---------0---------0---------0---------0---------0---------0---|
D|-------------4-------------------4-------------------4-------------------4--------|
A|----------------------------------------------------------------------------------|
E|---3-------------------3-------------------3-------------------3------------------|

    -per street               near the  ci---ty   row                      And  you
e|----------------------------------------------------------------------------------|
B|--------3---------3---------3---------3---------3---------3---------3---------3---|
G|--------0---------0---------0---------0---------0---------0---------0---------0---|
D|-------------4-------------------4-------------------4-------------------4--------|
A|---0-------------------0-------------------0-------------------0------------------|
E|----------------------------------------------------------------------------------|

               of   course         the  A---------n----gel  I---------s----ling-ton
e|----------------------------------------------------------------------------------|
B|--------3---------3---------3---------3---------3---------3---------3---------3---|
G|--------0---------0---------0---------0---------0---------0---------0---------0---|
D|-------------4-------------------4-------------------4-------------------4--------|
A|----------------------------------------------------------------------------------|
E|---3-------------------3-------------------3-------------------3------------------|

               Oh   come on             A    boy  can  hope
e|----------------------------------------------------------------------------------|
B|--------3---------3---------3---------3---------3----------------------------2v---|
G|--------0---------0---------0---------0---------0---------------------------2-----|
D|-------------4-------------------4-------------------4---------------------2------|
A|---0-------------------0-------------------0------------------------------0-------|
E|----------------------------------------------------------------------------------|

-OUTRO-

          By        the       wa--------ters      of        the
e|------------------0---------2---------3---------2---------0--------|
B|--------3----------------------------------------------------------|
G|-------------------------------------------------------------------|
D|---0---------0---------0---------0---------0---------0---------0---|
A|-------------------------------------------------------------------|
E|-------------------------------------------------------------------|

     Thames
e|----------------------------------------------------------------------------------|
B|--------2---------2---------2---------2---------2---------2---------2---------2---|
G|--------2---------2---------2---------2---------2---------2---------2---------2---|
D|----------------------------------------------------------------------------------|
A|---0---------0---------0---------0---------0---------0---------0---------0--------|
E|----------------------------------------------------------------------------------|

     I         re--------solve     to        start     a---gain
e|-----------------------0---------2---------0-------------------2^---|
B|---2---------3---------------------------------------3---------3^---|
G|---------------------------------------------------------------2^---|
D|----------------------------------------------------------0----0^---|
A|--------0---------0---------0---------0---------0-------------------|
E|--------------------------------------------------------------------|
Добавлено: 02.10.2015
Другие материалы по этой песне:
  • Аккорды и текст

Страница создана 02.10.2015
http://primanota.ru/frank-turner/angel-islington-chords.htm
Привет, Гость.
Предлагаем пройти революционный курс по гитаре.
Подарок от PrimaNota.Ru, забирай!