PrimaNota.ru - самый крупный в мире бесплатный архив песенных текстов, аккордов, табулатур и нот


Frank Sinatra - Where Or When - текст песни, бас-таба, перевод, видео

Регистрация Запомнить меня
Войти через:  Facebook Google Twitter Vk Yandex Mail.ru

Frank Sinatra - Where Or When - текст песни, бас-таба, перевод, видео

Печатать
Просмотров: 152
where_or_when_frank_sinatra

TablEdited by Jan Bjorklund    jani_bjorklund@yahoo.se>
You are welcome to request for tabs!
Fingering and positions as suggested by TablEdit, please use common sense.


TablEdited by Jan Bjorklund
Tuning : E A D G 	Time Signature: 4/4

  |               |               |               |
|----------------------------------------------------------------|
|3-----------------------------------------------------------4---|
|--------------------------------3-------------------------------|
|----------------------------------------------------------------|

  |               |               |               |
|----------------------------------------------------------------|
|3---------------------------------------------------------------|
|--------------------------------3-------------------------------|
|------------------------------------------------------------1---|

  |               |               |               |
|--------------------------------5-------------------------5-----|
|3---------------------------------------------------------------|
|----------------------------------------------------------------|
|----------------------------------------------------------------|

  |               |               |               |
|10--------10----5---------------2-------------------------------|
|------------------------------------------------3---------------|
|----------------------------------------------------------------|
|----------------------------------------------------------------|

  |               |               |               |
|----------------------------------------------------------------|
|--------------------------------3-------------------------------|
|1---------------------------------------------------------------|
|----------------------------------------------------------------|

  |               |               |               |
|----------------------------------------------------------------|
|--------------------------------3-------------------------------|
|1-------------------------1-------------------------------------|
|----------------------------------------------------------------|

  |               |               |               |
|----------------------------------------------------------------|
|--------------------------------3-------------------------------|
|1---------------------------------------------------------------|
|----------------------------------------------------------------|

  |               |               |               |
|0-----------0---7-----------------------------------------------|
|----------------------------------------------------------------|
|--------------------------------3-------------------------------|
|----------------------------------------------------------------|

  |               |               |               |
|------------------------------------------------------------1---|
|3-------------------------------0-------------------------------|
|----------------------------------------------------------------|
|----------------------------------------------------------------|

  |               |               |               |
|0-------------------------0-------------------------------------|
|------------------------------------------------------------2---|
|--------------------------------3-------------------------------|
|--------------------3-------------------------------------------|

  |               |               |               |
|----------------0---------------2---------------5---------------|
|3-----------3---------------------------------------------------|
|----------------------------------------------------------------|
|----------------------------------------------------------------|

  |               |               |               |
|----------------0---------------2---------------5---------------|
|3-----------3---------------------------------------------------|
|----------------------------------------------------------------|
|----------------------------------------------------------------|

  |               |               |               |
|----------------0---------------2---------------5---------------|
|3---------------------------------------------------------------|
|----------------------------------------------------------------|
|----------------------------------------------------------------|

  |               |               |               |
|10--------------5---------------2-------------------------------|
|------------------------------------------------3---------------|
|----------------------------------------------------------------|
|----------------------------------------------------------------|

  |               |               |               |
|3---------------------------------------------------------------|
|----------------0---------------1---------------2---------------|
|----------------------------------------------------------------|
|------------1-------------------------------1-------------------|

  |               |               |               |
|--------------------------------0---------------2---------------|
|3---------------4-----------------------------------------------|
|----------------------------------------------------------------|
|------------1-------------------------------1-------------------|

  |               |               |               |
|----------------3-----------------------------------------------|
|--------------------------------3---------------0---------------|
|1---------------------------------------------------------------|
|----------------------------------------------------------------|

  |               |               |               |
|0---------------0-----------------------------------------------|
|------------------------------------------------2---------------|
|--------------------------------3-----------3-------------------|
|----------------------------------------------------------------|

  |               |               |               |
|----------------------------------------------------------------|
|3---------------3---------------0---------------3---------------|
|----------------------------------------------------------------|
|------------1---------------------------------------------------|

  |               |               |               |
|----------------3-----------------------------------------------|
|2---------------------------------------------------------------|
|------------1---------------1---0---------------4---------------|
|----------------------------------------------------------------|

  |               |               |               |
|7-----------------------------------------------2---------------|
|----------------0---------------3-------------------------------|
|----------------------------------------------------------------|
|----------------------------------------------------------------|

  |               |               |               |
|0---------------2---------------3---------------7---------------|
|------------0-------------------------------0---------------0---|
|----------------------------------------------------------------|
|----------------------------------------------------------------|

  |               |               |               |
|----------------9---------------4---------------0---------------|
|2---------------------------------------------------------------|
|----------------------------------------------------------------|
|----------------------------------------------------------------|

  |               |               |               |
|----------------------------------------------------------------|
|----------------2-----------------------------------------------|
|0-------------------------------4---------------0---------------|
|----------------------------------------------------------------|

  |               |               |               |
|----------------2---------------7---------------2---------1-----|
|0---------------------------------------------------------------|
|----------------------------------------------------------------|
|----------------------------------------------------------------|

  |               |               |               |
|0-----------0---7---------------0---------------0---------------|
|----------------------------------------------------------------|
|----------------------------------------------------------------|
|--------------------------------------------3-------------------|

  |               |               |               |
|0---------------0-------------------------------1---------------|
|----------------------------------------------------------------|
|--------------------------------4-------------------------------|
|----------------------------------------------------------------|

  |               |               |               |
|0---------------0-----------------------------------------------|
|----------------------------------------------------------------|
|--------------------------------3-----------3---3---------------|
|----------------------------------------------------------------|

  |               |               |               |
|--------------------------------5-------------------------------|
|3-----------------------------------------------------------3---|
|----------------------------------------------------------------|
|----------------------------------------------------------------|

  |               |               |               |
|----------------------------------------------------------------|
|3-----------------------------------------------------------4---|
|--------------------------------3-------------------------------|
|----------------------------------------------------------------|

  |               |               |               |
|----------------------------------------------------------------|
|3---------------------------3-----------------------------------|
|--------------------------------3---------------------------3---|
|----------------------------------------------------------------|

  |               |               |               |
|----------------------------------------------------------------|
|3---------------------------------------------------------------|
|--------------------------------3-------------------------------|
|------------------------------------------------------------1---|

  |               |               |               |
|----------------------------------------------------------------|
|--------------------------------3-------------------------------|
|1-----------------------------------------------------------1---|
|----------------------------------------------------------------|

  |               |               |               |
|--------------------------2-----7---------2---------------------|
|0-----------------------------------------------0---------------|
|----------------------------------------------------------------|
|----------------------------------------------------------------|

  |               |               |               |
|0---------------------------------------------------------------|
|--------------------------------0-------------------------------|
|----------------------------------------------------------------|
|----------------------------------------------------------------|

  |               |               |               |
|----------7-----------------------------------------------------|
|0---------------0---------------2---------------4---------------|
|----------------------------------------------------------------|
|----------------------------------------------------------------|

  |               |               |               |
|0---------------------------0-----------------------------------|
|--------------------------------0---------------------------0---|
|----------------------------------------------------------------|
|----------------------------------------------------------------|

  |               |               |               |
|0---------------------------------------------------------------|
|----------------------------------------------------------------|
|----------------------------2---3-------------------------------|
|----------------------------------------------------------------|

  |               |               |               |
|----------------5-------------------------------2---------------|
|3-----------3-------------------0-----------0-------------------|
|----------------------------------------------------------------|
|----------------------------------------------------------------|

  |               |               |               |
|0-----------------------------------------------------------0---|
|----------------------------------------------------------------|
|--------------------------------3-------------------------------|
|--------------------------3-------------------------------------|

  |               |               |               |
|----------------0---------------2---------------5---------------|
|3---------------------------------------------------------------|
|----------------------------------------------------------------|
|----------------------------------------------------------------|

  |               |               |               |
|----------------0---------------2---------------5---------------|
|3---------------------------------------------------------------|
|------------3-------------------------------3---------------3---|
|----------------------------------------------------------------|

  |               |               |               |
|----------------0---------------2---------------5---------------|
|3---------------------------------------------------------------|
|----------------------------------------------------------------|
|----------------------------------------------------------------|

  |               |               |               |
|10--------------5---------------2-------------------------------|
|------------------------------------------------3---------------|
|----------------------------------------------------------------|
|----------------------------------------------------------------|

  |               |               |               |
|3---------------------------------------------------------------|
|----------------3---------------0-----------0-------------------|
|----------------------------------------------------------------|
|------------1-----------------------------------1---------------|

  |               |               |               |
|----------------------------------------------------------------|
|--------------------------------0---------------3---------------|
|1---------------3-----------------------------------------------|
|------------1-------------------------------1---------------1---|

  |               |               |               |
|----------------------------------------------------------------|
|--------------------------------0---------------3---------------|
|1---------------3-----------------------------------------------|
|------------1-------------------------------1---------------1---|

  |               |               |               |
|0---------------7-------------------------------5---0-----------|
|----------------------------------------------------------------|
|--------------------------------3-----------------------3-------|
|----------------------------------------------------------------|

  |               |               |               |
|--------------------------------7-----------7---2---------------|
|3---------------3-----------------------------------------------|
|----------------------------------------------------------------|
|------------1---------------------------------------------------|

  |               |               |               |
|0-----------------------------------------------0---------------|
|----------------------------------------------------------------|
|----------------4---------------3-------------------------------|
|----------3-----------------------------------------------------|

  |               |               |               |
|----------------0---------------2---------------5---------------|
|3-----------3---------------------------------------------------|
|----------------------------------------------------------------|
|----------------------------------------------------------------|

  |               |               |               |
|----------------0---------------2---------------5---------------|
|3---------------------------------------------------------------|
|----------------------------------------------------------------|
|----------------------------------------------------------------|

  |               |               |               |
|--------------------------------0---------------1---------------|
|3---------------4-----------------------------------------------|
|----------------------------------------------------------------|
|----------------------------------------------------------------|

  |               |               |               |
|2---------------3---------------4---------------5---------------|
|----------------------------------------------------------------|
|----------------------------------------------------------------|
|----------------------------------------------------------------|

  |               |               |               |
|3---------------3-----------------------------------------------|
|--------------------------------3-------------------------------|
|----------------------------------------------------------------|
|------------------------------------------------1---------------|

  |               |               |               |
|----------------------------------------------------------------|
|--------------------------------0---------------3---------------|
|1---------------3-----------3-----------------------------------|
|----------------------------------------------------------------|

  |               |               |               |
|----------------------------------------------------------------|
|--------------------------------0---------------3---------------|
|1-----------1---3-----------------------------------------------|
|----------------------------------------------------------------|

  |               |               |               |
|0---------------7-----------------------------------------------|
|------------0---------------0-----------------------------------|
|--------------------------------3-----------3---3---------------|
|----------------------------------------------------------------|

  |               |               |               |
|----------------------------------------------------------------|
|3---------------1---------------0-----------0---1---------------|
|----------------------------------------------------------------|
|----------1-----------------------------------------------------|

  |               |               |               |
|----------------------------------------------------------------|
|2---------------2-----------------------------------------------|
|--------------------------------0---------------4---------------|
|------------0---------------------------------------------------|

  |               |               |               |
|------------------------------------------------2---------------|
|0---------------2---------------3-------------------------0-----|
|----------------------------------------------------------------|
|----------------------------------------------------------------|

  |               |               |               |
|0---------------7---------------3---------------0---------------|
|------------0-----------------------------------------------0---|
|----------------------------------------------------------------|
|----------------------------------------------------------------|

  |               |               |               |
|--------------------------------0---------------4---------------|
|2---------------4-------------------------------------------2---|
|----------------------------------------------------------------|
|------------0---------------------------------------------------|

  |               |               |               |
|2---------------------------------------------------------------|
|------------------------------------------------2---------------|
|----------------0---------------4-------------------------------|
|----------------------------------------------------------------|

  |               |               |               |
|----------------2-----------------------------------------------|
|0-------------------------------3---------------0---------------|
|------------0-----------------------------------------------0---|
|----------------------------------------------------------------|

  |               |               |               |
|0---------------0---------------0-----------0---7---------------|
|----------------------------------------------------------------|
|----------------------------------------------------------------|
|----------------------------------------------------------------|

  |               |               |               |
|0---------------7---------------6---------------1---------------|
|----------------------------------------------------------------|
|----------------------------------------------------------------|
|----------------------------------------------------------------|

  |               |               |               |
|0-----------0---7-----------------------------------------------|
|----------------------------------------------------------------|
|--------------------------------3-----------3---3---------------|
|----------------------------------------------------------------|

  |               |               |               |
|----------------0---------------2---------------5---------------|
|3---------------------------------------------------------------|
|------------3-------------------------------3---------------3---|
|----------------------------------------------------------------|

  |               |               |               |
|----------------5---------------2-------------------------------|
|3-----------------------------------------------3---------------|
|------------3-----------------------------------------------3---|
|----------------------------------------------------------------|

  |               |               |               |
|----------------0---------------2---------------5---------------|
|3---------------------------------------------------------------|
|----------------------------------------------------------------|
|----------------------------------------------------------------|

  |               |               |               |
|----------------0---------------2---------------5---------------|
|3---------------------------------------------------------------|
|----------------------------------------------------------------|
|----------------------------------------------------------------|

  |               |               |               |
|----------------------------------------------------------------|
|--------------------------------0---------------3---------------|
|1-----------1---3-----------------------------------------------|
|----------------------------------------------------------------|

  |               |               |               |
|----------------7---------------2-------------------------------|
|0-----------------------------------------------4---------------|
|----------------------------------------------------------------|
|----------------------------------------------------------------|

  |               |               |               |
|0---------------7---------------3---------------0---------------|
|------------0-----------------------------------------------0---|
|----------------------------------------------------------------|
|----------------------------------------------------------------|

  |               |               |               |
|----------------------------------------------------------------|
|0---------------2---------------3---------------4---------------|
|------------0-------------------------------0-------------------|
|----------------------------------------------------------------|

  |               |               |               |
|0---------------7---------------3---------------0---------------|
|----------------------------------------------------------------|
|----------------------------------------------------------------|
|----------------------------------------------------------------|

  |               |               |               |
|0---------------0-----------------------------------------------|
|----------------------------------------------------------------|
|--------------------------------3---------------3---------------|
|----------------------------------------------------------------|

  |               |               |               |
|------------------------------------------------7---2-----------|
|3---------------3---------------0-----------------------0-------|
|----------------------------------------------------------------|
|----------------------------------------------------------------|

  |               |               |               |
|0---------------0-----------------------------------------------|
|------------------------------------------------2---------------|
|--------------------------------3-----------3-------------------|
|----------------------------------------------------------------|

  |               |               |               |
|----------------------------------------------------------------|
|3---------------------------------------------------------------|
|--------------------------------3-------------------------------|
|----------------------------------------------------------------|

  |               |               |               |
|----------------------------------------------------------------|
|3---------------------------------------------------------------|
|--------------------------------3-------------------------------|
|------------------------------------------------------------1---|

  |               |               |               |
|--------------------------------5-------------------------5-----|
|3---------------------------------------------------------------|
|----------------------------------------------------------------|
|----------------------------------------------------------------|

  |               |               |               |
|10--------10----5---------------2-------------------------------|
|------------------------------------------------3---------------|
|----------------------------------------------------------------|
|----------------------------------------------------------------|

  |               |               |               |
|----------------------------------------------------------------|
|--------------------------------3-------------------------------|
|1---------------------------------------------------------------|
|----------------------------------------------------------------|

  |               |               |               |
|----------------------------------------------------------------|
|--------------------------------3-------------------------------|
|1-------------------------1-------------------------------------|
|----------------------------------------------------------------|

  |               |               |               |
|----------------------------------------------------------------|
|--------------------------------3-------------------------------|
|1---------------------------------------------------------------|
|----------------------------------------------------------------|

  |               |               |               |
|0---------------------------------------------------------------|
|----------------------------------------------------------------|
|--------------------------------3-------------------------------|
|----------------------------------------------------------------|

  |               |               |               |
|------------------------------------------------------------2---|
|3-------------------------------0-------------------------------|
|----------------------------------------------------------------|
|----------------------------------------------------------------|

  |               |               |               |
|0---------------------------------------------------------------|
|----------------------------------------------------------------|
|--------------------------------3-------------------------------|
|----------------------------------------------------------------|

  |               |               |               |
|----------------0---------------2---------------5---------------|
|3-----------3---------------------------------------------------|
|----------------------------------------------------------------|
|----------------------------------------------------------------|

  |               |               |               |
|----------------0---------------2---------------5---------------|
|3---------------------------------------------------------------|
|------------3-------------------------------3---------------3---|
|----------------------------------------------------------------|

  |               |               |               |
|----------------0---------------2---------------5---------------|
|3---------------------------------------------------------------|
|----------------------------------------------------------------|
|----------------------------------------------------------------|

  |               |               |               |
|10--------------5---------------2-------------------------------|
|------------------------------------------------3---------------|
|----------------------------------------------------------------|
|----------------------------------------------------------------|

  |               |               |               |
|3---------------------------------------------------------------|
|----------------0---------------1---------------2---------------|
|----------------------------------------------------------------|
|------------1-------------------------------1-------------------|

  |               |               |               |
|--------------------------------0---------------2---------------|
|3---------------4-----------------------------------------------|
|----------------------------------------------------------------|
|------------1-------------------------------1-------------------|

  |               |               |               |
|----------------3-----------------------------------------------|
|--------------------------------3---------------0---------------|
|1---------------------------------------------------------------|
|----------------------------------------------------------------|

  |               |               |               |
|0---------------0-----------------------------------------------|
|------------------------------------------------3---------------|
|--------------------------------3-------------------------------|
|----------------------------------------------------------------|

  |               |               |               |
|----------------5-----------------------------------------------|
|3-------------------------------0---------------0---------------|
|------------3---------------3-----------------------------------|
|----------------------------------------------------------------|

  |               |               |               |
|----------------------------------------------------------------|
|2---------------------------------------------------------------|
|--------------------------------0-----------0---0---------------|
|----------------4-----------------------------------------------|

  |               |               |               |
|------------------------------------------------2---------------|
|0-----------0---2---------------3---------------------------0---|
|----------------------------------------------------------------|
|----------------------------------------------------------------|

  |               |               |               |
|0---------------7---------------12--------------7---------------|
|----------------------------------------------------------3-----|
|----------------------------------------------------------------|
|----------------------------------------------------------------|

  |               |               |               |
|--------------------------------0---------------4---------------|
|2---------------4-----------------------------------------------|
|------------2-------------------------------2---------------2---|
|----------------------------------------------------------------|

  |               |               |               |
|----------------------------------------------------------------|
|----------------------------------------------------------------|
|0---------------2---------------3---------------4---------------|
|------------0-------------------------------0-------------------|

  |               |               |               |
|----------------2---------------7---------------2---------1-----|
|0---------------------------------------------------------------|
|----------------------------------------------------------------|
|----------------------------------------------------------------|

  |               |               |               |
|0---------------7---------------0-----------0-------------------|
|------------0---------------0-------------------4---------------|
|----------------------------------------------------------------|
|----------------------------------------------------------------|

  |               |               |               |
|0---------------7-------------------------------1---------------|
|----------------------------------------------------------------|
|--------------------------------4-----------4-------------------|
|----------------------------------------------------------------|

  |               |               |               |
|0---------------7-------------------------------0---------------|
|------------0---------------0-----------------------------------|
|--------------------------------3-------------------------------|
|----------------------------------------------------------------|

  |               |               |               |
|--------------------------------5-------------------------------|
|3-----------------------------------------------------------3---|
|----------------------------------------------------------------|
|----------------------------------------------------------------|

  |               |               |               |
|----------------------------------------------------------------|
|3---------------------------3-----------------------------------|
|--------------------------------3---------------------------3---|
|----------------------------------------------------------------|

  |               |               |               |
|----------------------------------------------------------------|
|3---------------------------------------------------------------|
|--------------------------------3-------------------------------|
|----------------------------------------------------------------|

  |               |               |               |
|----------------------------------------------------------------|
|3---------------------------------------------------------------|
|--------------------------------3-------------------------------|
|------------------------------------------------------------1---|

  |               |               |               |
|----------------------------------------------------------------|
|--------------------------------3-------------------------------|
|1---------------------------------------------------------------|
|----------------------------------------------------------------|

  |               |               |               |
|--------------------------------2---------------------------1---|
|0---------------------------------------------------------------|
|----------------------------------------------------------------|
|----------------------------------------------------------------|

  |               |               |               |
|0---------------------------------------------------------------|
|--------------------------------0---------------------------1---|
|----------------------------------------------------------------|
|----------------------------------------------------------------|

  |               |               |               |
|--------------------------------2-------------------------------|
|0-----------------------------------------------------------0---|
|----------------------------------------------------------------|
|----------------------------------------------------------------|

  |               |               |               |
|0---------------------------0-----------------------------------|
|--------------------------------0---------------------------0---|
|----------------------------------------------------------------|
|----------------------------------------------------------------|

  |               |               |               |
|0---------------------------------------------------------------|
|------------------------------------------------------------2---|
|----------------------------2---3-------------------------------|
|----------------------------------------------------------------|

  |               |               |               |
|------------------------------------------------2---------------|
|3-------------------------------0-----------0-------------------|
|----------------------------------------------------------------|
|----------------------------------------------------------------|

  |               |               |               |
|0-----------0---7-----------------------------------------------|
|----------------------------------------------------------------|
|--------------------------------3-------------------------3-----|
|----------------------------------------------------------------|

  |               |               |               |
|--------------------------------5---------------------------5---|
|3---------------------------------------------------------------|
|----------------------------------------------------------------|
|----------------------------------------------------------------|

  |               |               |               |
|10--------------------------------------------------------------|
|----------------------------3-----------------------------------|
|----------------------------------------------------------------|
|----------------------------------------------------------------|


Created with TablEdit http://www.tabledit.com/

     
Добавлено: 28.11.2013
Другие материалы по этой песне:

Страница создана 11.04.2012
http://primanota.ru/frank-sinatra/where-or-when-chords.htm
Привет, Гость.
Предлагаем пройти революционный курс по гитаре.
Подарок от PrimaNota.Ru, забирай!