PrimaNota.ru - самый крупный в мире бесплатный архив песенных текстов, аккордов, табулатур и нот


Frank Sinatra - Unforgettable - бас-таба, видео

Регистрация Запомнить меня
Войти через:  Facebook Google Twitter Vk Yandex Mail.ru

Frank Sinatra - Unforgettable - бас-таба, видео

Печатать
Просмотров: 255
frank sinatra_unforgettable

TablEdited by Jan Bjorklund    jani_bjorklund@yahoo.se>
You are welcome to request for tabs!
Fingering and positions as suggested by TablEdit, please use common sense.


TablEdited by Jan Bjorklund
Tuning : E A D G 	Time Signature: 4/4

  |               |               |               |
|----------------------------------------------------------------|
|----------------------------------------------------------------|
|------------------------------------------3-----3---------------|
|----------------------------------------------------------------|

  |               |               |               |
|----------------------------------------------------------------|
|----------------------------------------------------------------|
|------------------------------------------3-----3---------------|
|----------------------------------------------------------------|

  |               |               |               |
|5-------------------------------5-------------------------------|
|----------------------------------------------------------------|
|--------------------------3-------------------------------3-----|
|----------------------------------------------------------------|

  |               |               |               |
|0-------------------------------0-----------------------0-------|
|----------------------------------------------------------------|
|--------------------------3---------------------3---------------|
|----------------------------------------------------------------|

  |               |               |               |
|----------------------------------------------------------------|
|3---------------------------------------------------------------|
|--------------------------------3---------------------------3---|
|----------------------------------------------------------------|

  |               |               |               |
|----------------------------------------------------------------|
|3-----------------------------------------------3---------------|
|--------------------------------3-------------------------------|
|----------------------------------------------------------------|

  |               |               |               |
|1---------------------------------------------------------------|
|----------------------------------------------------------------|
|----------------------------------------------------------------|
|----------------------------------------------------------------|

  |               |               |               |
|1-------------------------------1-----------------------1-------|
|----------------------------------------------------------------|
|----------------------------------------------------------------|
|----------------------------------------------------------------|

  |               |               |               |
|0---------------------------------------------------------------|
|--------------------------------0---------------------------0---|
|----------------------------------------------------------------|
|----------------------------------------------------------------|

  |               |               |               |
|0---------------------------------------------------------------|
|--------------------------------0-------------------------------|
|----------------------------------------------------------------|
|----------------------------------------------------------------|

  |               |               |               |
|0---------------------------------------------------------------|
|--------------------------------0-----------------------0-------|
|----------------------------------------------------------------|
|----------------------------------------------------------------|

  |               |               |               |
|0-----------------------------------------------0---------------|
|--------------------------------0-------------------------------|
|----------------------------------------------------------------|
|----------------------------------------------------------------|

  |               |               |               |
|----------------------------------------------------------------|
|----------------------------------------------------------------|
|3---------------------------3---3-------------------------------|
|----------------------------------------------------------------|

  |               |               |               |
|----------------------------------------------------------------|
|1-------------------------------1-------------------------------|
|----------------------------------------------------------------|
|----------------------------------------------------------------|

  |               |               |               |
|3-------------------------------1-------------------------------|
|----------------------------------------------------------------|
|----------------------------------------------------------------|
|----------------------------------------------------------------|

  |               |               |               |
|0-----------------------------------------------0---------------|
|--------------------------------0-------------------------------|
|----------------------------------------------------------------|
|----------------------------------------------------------------|

  |               |               |               |
|--------------------------------0---------------------------0---|
|----------------------------------------------------4-----------|
|3---------------------------------------------------------------|
|----------------------------------------------------------------|

  |               |               |               |
|5-------------------------------0---5---------------------------|
|----------------------------------------------------------------|
|----------------------------------------------------------------|
|----------------------------------------------------------------|

  |               |               |               |
|--------------------------------0-------------------------------|
|----------------------------------------------------------------|
|3-----------------------------------------------3---------------|
|----------------------------------------------------------------|

  |               |               |               |
|----------------------------------------------------------------|
|----------------------------------------------------------------|
|4---------------------------------------------------------------|
|----------------------------------------------------------------|

  |               |               |               |
|----------------------------------------------------------------|
|3---------------------------------------------------------------|
|--------------------------------3-------------------------------|
|----------------------------------------------------------------|

  |               |               |               |
|----------------------------------------------------------------|
|3-----------------------------------------------3---------------|
|--------------------------------3-------------------------------|
|----------------------------------------------------------------|

  |               |               |               |
|1---------------------------------------------------------------|
|--------------------------------1-------------------------------|
|----------------------------------------------------------------|
|----------------------------------------------------------------|

  |               |               |               |
|1-----------------------------------------------1---------------|
|--------------------------------1-------------------------------|
|----------------------------------------------------------------|
|----------------------------------------------------------------|

  |               |               |               |
|0---------------------------------------------------------------|
|--------------------------------0-------------------------------|
|----------------------------------------------------------------|
|----------------------------------------------------------------|

  |               |               |               |
|0---------------------------------------------------------------|
|--------------------------------0-------------------------------|
|----------------------------------------------------------------|
|----------------------------------------------------------------|

  |               |               |               |
|0---------------------------------------------------------------|
|--------------------------------0-------------------------------|
|----------------------------------------------------------------|
|----------------------------------------------------------------|

  |               |               |               |
|0-----------------------------------------------0---------------|
|--------------------------------0-------------------------------|
|----------------------------------------------------------------|
|----------------------------------------------------------------|

  |               |               |               |
|5-------------------------------0---------------5---------------|
|----------------------------------------------------------------|
|----------------------------------------------------------------|
|----------------------------------------------------------------|

  |               |               |               |
|1-----------------------------------------------1---------------|
|--------------------------------1-------------------------------|
|----------------------------------------------------------------|
|----------------------------------------------------------------|

  |               |               |               |
|3-------------------------------1-------------------3---1-------|
|----------------------------------------------------------------|
|----------------------------------------------------------------|
|----------------------------------------------------------------|

  |               |               |               |
|0-----------------------------------------------0---------------|
|--------------------------------0-------------------------------|
|----------------------------------------------------------------|
|----------------------------------------------------------------|

  |               |               |               |
|--------------------------------0-------------------------------|
|----------------------------------------------------------------|
|3---------------------------------------------------------------|
|----------------------------------------------------------------|

  |               |               |               |
|----------------------------------------------------------------|
|3-----------------------------------------------3---------------|
|--------------------------------3-------------------------------|
|----------------------------------------------------------------|

  |               |               |               |
|3-----------------------------------------------3---------------|
|--------------------------------3-------------------------------|
|----------------------------------------------------------------|
|----------------------------------------------------------------|

  |               |               |               |
|--------------------------------1-------------------------------|
|1---------------------------1-----------------------------------|
|----------------------------------------------------------------|
|----------------------------------------------------------------|

  |               |               |               |
|----------------------------------------------------------------|
|----------------------------------------------------------------|
|4---------------------------------------------------------------|
|--------------------------------4---------------------------4---|

  |               |               |               |
|----------------------------------------------------------------|
|----------------------------------------------------------------|
|4-----------------------------------------------4---------------|
|--------------------------------4-------------------------------|

  |               |               |               |
|----------------------------------------------------------------|
|2---------------------------------------------------------------|
|----------------------------------------------------------------|
|----------------------------------------------------------------|

  |               |               |               |
|----------------------------------------------------------------|
|2-------------------------------2-----------------------2-------|
|----------------------------------------------------------------|
|----------------------------------------------------------------|

  |               |               |               |
|----------------------------------------------------------------|
|1---------------------------------------------------------------|
|--------------------------------1---------------------------1---|
|----------------------------------------------------------------|

  |               |               |               |
|----------------------------------------------------------------|
|1---------------------------------------------------------------|
|--------------------------------1-------------------------------|
|----------------------------------------------------------------|

  |               |               |               |
|----------------------------------------------------------------|
|1---------------------------------------------------------------|
|--------------------------------1-----------------------1-------|
|----------------------------------------------------------------|

  |               |               |               |
|----------------------------------------------------------------|
|1-----------------------------------------------1---------------|
|--------------------------------1-------------------------------|
|----------------------------------------------------------------|

  |               |               |               |
|----------------------------------------------------------------|
|----------------------------------------------------------------|
|----------------------------------------------------------------|
|4---------------------------4---4-------------------------------|

  |               |               |               |
|----------------------------------------------------------------|
|----------------------------------------------------------------|
|2-------------------------------2-------------------------------|
|----------------------------------------------------------------|

  |               |               |               |
|----------------------------------------------------------------|
|4-------------------------------2-------------------------------|
|----------------------------------------------------------------|
|----------------------------------------------------------------|

  |               |               |               |
|----------------------------------------------------------------|
|1-----------------------------------------------1---------------|
|--------------------------------1-------------------------------|
|----------------------------------------------------------------|

  |               |               |               |
|----------------------------------------------------------------|
|--------------------------------1-------------------0-------1---|
|----------------------------------------------------------------|
|4---------------------------------------------------------------|

  |               |               |               |
|1-----------------------------------1---------------------------|
|--------------------------------1-------------------------------|
|----------------------------------------------------------------|
|----------------------------------------------------------------|

  |               |               |               |
|----------------------------------------------------------------|
|--------------------------------1-------------------------------|
|----------------------------------------------------------------|
|4-----------------------------------------------4---------------|

  |               |               |               |
|----------------------------------------------------------------|
|----------------------------------------------------------------|
|--------------------------------3-----------------3-------------|
|3---------3---------------3-------------------------------------|

  |               |               |               |
|----------------------------------------------------------------|
|3---------------------------------------------------------------|
|--------------------------------3-------------------------------|
|----------------------------------------------------------------|

  |               |               |               |
|----------------------------------------------------------------|
|3-----------------------------------------------3---------------|
|--------------------------------3-------------------------------|
|----------------------------------------------------------------|

  |               |               |               |
|1---------------------------------------------------------------|
|--------------------------------1-------------------------------|
|----------------------------------------------------------------|
|----------------------------------------------------------------|

  |               |               |               |
|1-----------------------------------------------1---------------|
|--------------------------------1-------------------------------|
|----------------------------------------------------------------|
|----------------------------------------------------------------|

  |               |               |               |
|0---------------------------------------------------------------|
|--------------------------------0-------------------------------|
|----------------------------------------------------------------|
|----------------------------------------------------------------|

  |               |               |               |
|0---------------------------------------------------------------|
|--------------------------------0-------------------------------|
|----------------------------------------------------------------|
|----------------------------------------------------------------|

  |               |               |               |
|0---------------------------------------------------------------|
|--------------------------------0-------------------------------|
|----------------------------------------------------------------|
|----------------------------------------------------------------|

  |               |               |               |
|0-----------------------------------------------0---------------|
|--------------------------------0-------------------------------|
|----------------------------------------------------------------|
|----------------------------------------------------------------|

  |               |               |               |
|5-------------------------------0---------------5---------------|
|----------------------------------------------------------------|
|----------------------------------------------------------------|
|----------------------------------------------------------------|

  |               |               |               |
|1-----------------------------------------------1---------------|
|--------------------------------1-------------------------------|
|----------------------------------------------------------------|
|----------------------------------------------------------------|

  |               |               |               |
|3-------------------------------1-------------------3---1-------|
|----------------------------------------------------------------|
|----------------------------------------------------------------|
|----------------------------------------------------------------|

  |               |               |               |
|0-----------------------------------------------0---------------|
|--------------------------------0-------------------------------|
|----------------------------------------------------------------|
|----------------------------------------------------------------|

  |               |               |               |
|--------------------------------0-------------------------------|
|----------------------------------------------------------------|
|3---------------------------------------------------------------|
|----------------------------------------------------------------|

  |               |               |               |
|----------------------------------------------------------------|
|3-----------------------------------------------3---------------|
|--------------------------------3-------------------------------|
|----------------------------------------------------------------|


Created with TablEdit http://www.tabledit.com/

     
Добавлено: 30.08.2013
Другие материалы по этой песне:
  • Аккорды и текст

Страница создана 30.08.2013
http://primanota.ru/frank-sinatra/unforgettable-chords.htm
Привет, Гость.
Предлагаем пройти революционный курс по гитаре.
Подарок от PrimaNota.Ru, забирай!