PrimaNota.ru - самый крупный в мире бесплатный архив песенных текстов, аккордов, табулатур и нот


Frank Sinatra - Thats Why The Lady Is A Tramp - бас-таба, видео

Регистрация Запомнить меня
Войти через:  Facebook Google Twitter Vk Yandex Mail.ru

Frank Sinatra - Thats Why The Lady Is A Tramp - бас-таба, видео

Печатать
Просмотров: 143
that's why the lady is a tramp_frank_sinatra

TablEdited by Jan Bjorklund    jani_bjorklund@yahoo.se>
You are welcome to request for tabs!
Fingering and positions as suggested by TablEdit, please use common sense.


TablEdited by Jan Bjorklund
Tuning : E A D G 	Time Signature: 2/4

  |               |                |               |
|--------------------------------|--------------------------------|
|--3-----------------------------|--------------------------------|
|--------------------------------|--------------------------------|
|--------------------------------|----------1---------------------|

  |               |                |               |
|--------------------------------|--------------------------------|
|--2-----------------------------|--------------------------------|
|--------------------------------|--------------------------------|
|--------------------------------|--------------------------------|

  |               |                |               |
|----------------0-------------5-|--------------0-----------------|
|--------------------------------|--------------------------------|
|3-------------------------------|--------------------------------|
|--------------------------------|--------------------------------|

  |               |                |               |
|----------------0---------------|2-------------0-----------------|
|3-------------------------------|--------------------------------|
|--------------------------------|--------------------------------|
|--------------------------------|--------------------------------|

  |               |                |               |
|--------------------------------|0-------------------------------|
|----------------3---------------|----------------3---------------|
|1-------------------------------|--------------------------1-----|
|--------------------------------|--------------------------------|

  |               |                |               |
|----------------0---------------|3---------------0---------------|
|2-------------------------------|--------------------------------|
|--------------------------------|--------------------------------|
|--------------------------------|--------------------------------|

  |               |                |               |
|--------------------------------|0-------------------------------|
|----------------1---------------|--------------------------------|
|3-------------------------------|----------------3---------------|
|--------------------------------|--------------------------------|

  |               |                |               |
|--------------------------------|--------------------------0-----|
|--------------------------------|----------------3---------------|
|--------------0-----------------|------------------------------1-|
|1-------------------------------|1-------------------------------|

  |               |                |               |
|--------------------------------|--------------------------------|
|--------------------------------|----------------3---------------|
|--------------------------------|----------1-------------1-------|
|--------------------------------|--------------------------------|

  |               |                |               |
|--------------------------------|0-------------------------------|
|2-------------------------------|--------------2-----------------|
|--------------------------------|--------------------------------|
|--------------------------------|--------------------------------|

  |               |                |               |
|--------------------------------|--------------------------------|
|--------------------------------|--------------------------------|
|3-------------------------------|--------------------------------|
|--------------------------------|--------------------------------|

  |               |                |               |
|--------------------------------|--------------------------------|
|3-------------------------------|--------------------------------|
|--------------------------------|--------------------------------|
|--------------------------------|--------------------------------|

  |               |                |               |
|--------------------------------|--------------------------------|
|----------------3---------------|--------------3-----------------|
|1-------------------------------|--------------------------------|
|--------------------------------|--------------------------------|

  |               |                |               |
|------------------------------0-|--------------------------------|
|----------------3---------------|----------------3---------------|
|1-------------------------1-----|--------------------------------|
|--------------------------------|--------------------------------|

  |               |                |               |
|--------------------------------|--------------------------------|
|1-------------------------------|1---------------1---------------|
|--------------1-----------------|--------------------------------|
|--------------------------------|--------------------------------|

  |               |                |               |
|--------------------------------|--------------------------------|
|--------------------------------|--------------------------------|
|--------------1---------------3-|--------------1-----------------|
|2-------------------------------|--------------------------------|

  |               |                |               |
|--------------------------------|3-------------------------------|
|--------------------------------|--------------------------------|
|1-------------------------------|--------------------------------|
|--------------------------------|--------------------------------|

  |               |                |               |
|--------------------------------|--------------------------------|
|--------------------------------|3-------------------------------|
|3-------------------------------|--------------------------------|
|--------------------------------|--------------------------------|

  |               |                |               |
|--------------------------------|3-------------------------------|
|--------------------------3-----|--------------------------------|
|1-------------------------------|--------------------------4-----|
|--------------------------------|--------------------------------|

  |               |                |               |
|--------------------------------|--------------------------------|
|--------------------------------|----------------1---------3-----|
|4-------------------------4-----|4---------4---------------------|
|--------------------------------|--------------------------------|

  |               |                |               |
|--------------------------------|3-------------------------------|
|----------------3---------------|--------------------------------|
|1-------------------------------|----------------1---------------|
|--------------------------------|--------------------------------|

  |               |                |               |
|1---------------3---------------|5---------------3---------1-----|
|--------------------------------|--------------------------------|
|--------------------------------|--------------------------------|
|--------------------------------|--------------------------------|

  |               |                |               |
|--------------------------------|0---------------0---------------|
|----------------1---------------|--------------------------1-----|
|3-------------------------------|----------------3---------------|
|--------------------------------|--------------------------------|

  |               |                |               |
|--------------------------------|--------------------------------|
|--------------------------------|--------------3-----------------|
|----------------0---------------|3-------------------------3---1-|
|1-------------------------------|--------------------------------|

  |               |                |               |
|--------------------------------|3-------------------------------|
|----------------3---------------|--------------3-----------------|
|--------------------------------|--------------------------1-----|
|--------------------------------|--------------------------------|

  |               |                |               |
|1---------------5---------------|1-------------------------------|
|--------------------------------|--------------1-----------------|
|--------------------------------|------------------------------3-|
|--------------------------------|--------------------------------|

  |               |                |               |
|------------------------------0-|--------------------------------|
|----------------1---------------|----------------1---------------|
|--------------------------------|--------------------------3-----|
|--------------------------------|--------------------------------|

  |               |                |               |
|----------------2-------------5-|--------------7-----------------|
|3-------------------------------|--------------------------------|
|--------------------------------|------------------------------1-|
|--------------------------------|--------------------------1-----|

  |               |                |               |
|--------------------------------|0-------------------------------|
|----------------3---------------|--------------3-----------------|
|--------------------------------|--------------------------------|
|--------------------------------|--------------------------------|

  |               |                |               |
|------------------------------0-|--------------------------------|
|----------------3---------------|----------------3---------------|
|1-------------------------1-----|--------------------------------|
|--------------------------------|--------------------------------|

  |               |                |               |
|--------------------------------|--------------------------------|
|1-------------------------------|1---------------1---------------|
|--------------1-----------------|--------------------------------|
|--------------------------------|--------------------------------|

  |               |                |               |
|--------------------------------|--------------------------------|
|--------------------------------|--------------------------------|
|--------------1---------------3-|--------------1-----------------|
|2-------------------------------|--------------------------------|

  |               |                |               |
|--------------------------------|3-------------------------------|
|--------------------------------|--------------------------------|
|1-------------------------------|--------------------------------|
|--------------------------------|--------------------------------|

  |               |                |               |
|--------------------------------|--------------------------------|
|--------------------------------|3-------------------------------|
|3-------------------------------|--------------------------------|
|--------------------------------|--------------------------------|

  |               |                |               |
|--------------------------------|--------------------------------|
|--------------------------------|--------------------------------|
|1-------------------------1-----|--------------------------------|
|--------------------------------|--------------------------------|

  |               |                |               |
|--------------------------------|--------------------------------|
|--------------------------------|--------------------------------|
|--1-----------------------1-----|--------------------------------|
|--------------------------------|--------------------------------|

  |               |                |               |
|--------------------------------|--------------------------------|
|1-------------------------------|----------------1---------------|
|--------------------------------|1-------------------------------|
|----------------3---------------|--------------------------------|

  |               |                |               |
|--------------------------------|--------------------------------|
|--------------------------------|--------------3---------------0-|
|0-------------------------------|3-------------------------------|
|----------------1---------------|--------------------------------|

  |               |                |               |
|--------------------------------|--------------------------------|
|----------------0---------------|----------------0---------------|
|--------------------------------|0-------------------------------|
|--------------------------------|--------------------------------|

  |               |                |               |
|--------------------------------|--------------------------------|
|--------------------------------|0-------------------------------|
|----------------1---------------|----------------1---------------|
|3-------------------------------|--------------------------------|

  |               |                |               |
|----------------0-------------5-|--------------0-----------------|
|--------------------------------|--------------------------------|
|3-------------------------------|--------------------------3-----|
|--------------------------------|--------------------------------|

  |               |                |               |
|--------------------------------|--------------------------------|
|--------------------------------|--------------3-----------------|
|----------------0-------------3-|--------------------------------|
|1-------------------------------|--------------------------------|

  |               |                |               |
|--------------------------------|----------0---------------------|
|0-------------------------------|--------------------------------|
|--------------------------------|--------------------------------|
|--------------------------------|--------------------------------|

  |               |                |               |
|--------------------------------|--------------------------------|
|--------------------------------|--------------------------------|
|3-------------------------------|--------------------------------|
|--------------------------------|----------1---------------------|

  |               |                |               |
|--------------------------------|--------------------------------|
|--------------0-----------------|3---------------0---------------|
|1-------------------------------|--------------------------1-----|
|--------------------------------|--------------------------------|

  |               |                |               |
|--------------------------------|--------------------------------|
|----------------1---------------|----------------1---------------|
|--------------------------------|--------------------------------|
|4-------------------------------|4-------------------------------|

  |               |                |               |
|--------------------------------|0-------------------------------|
|----------------1---------------|----------------1---------------|
|3-------------------------------|--------------------------------|
|--------------------------------|--------------------------------|

  |               |                |               |
|--------------------------------|2---------------5---------------|
|0---------------3---------------|--------------------------------|
|--------------------------------|--------------------------------|
|--------------------------------|--------------------------------|

  |               |                |               |
|--------------------------------|--------------------------------|
|--------------------------------|--------------------------------|
|--------------------------------|1-------------------------------|
|3-------------------------------|--------------------------------|

  |               |                |               |
|--------------------------------|--------------------------------|
|--------------------------------|--------------------------------|
|3-------------------------------|--------------------------------|
|--------------------------1-----|--------------------------------|

  |               |                |               |
|--------------------------------|--------------------------------|
|--------------------------------|--------------------------------|
|1-------------------------1-----|--------------------------------|
|--------------------------------|--------------------------------|

  |               |                |               |
|--------------------------------|--------------------------------|
|--------------------------------|--------------------------------|
|--------------------------------|--------------------------------|
|2-------------------------2-----|--------------------------------|

  |               |                |               |
|--------------------------------|4-------------------------------|
|----------------4---------------|--------------------------------|
|2-------------------------------|----------------2---------------|
|--------------------------------|--------------------------------|

  |               |                |               |
|2---------------4---------------|6---------------4---------2-----|
|--------------------------------|--------------------------------|
|--------------------------------|--------------------------------|
|--------------------------------|--------------------------------|

  |               |                |               |
|--------------------------------|1-------------------------------|
|----------------2---------------|--------------------------2-----|
|4-------------------------------|----------------4---------------|
|--------------------------------|--------------------------------|

  |               |                |               |
|--------------------------------|--------------------------------|
|--------------------------------|--------------4-----------------|
|----------------1---------------|4-------------------------4---2-|
|2-------------------------------|--------------------------------|

  |               |                |               |
|--------------------------------|4-------------------------------|
|----------------4---------------|--------------4-----------------|
|--------------------------------|--------------------------2-----|
|--------------------------------|--------------------------------|

  |               |                |               |
|2---------------6---------------|2-------------------------------|
|--------------------------------|--------------2-----------------|
|--------------------------------|------------------------------4-|
|--------------------------------|--------------------------------|

  |               |                |               |
|------------------------------1-|--------------------------------|
|----------------2---------------|----------------2---------------|
|--------------------------------|--------------------------4-----|
|--------------------------------|--------------------------------|

  |               |                |               |
|----------------3-------------6-|--------------8-----------------|
|4-------------------------------|--------------------------------|
|--------------------------------|------------------------------2-|
|--------------------------------|--------------------------2-----|

  |               |                |               |
|--------------------------------|1-------------------------------|
|----------------4---------------|--------------4-----------------|
|--------------------------------|--------------------------------|
|--------------------------------|--------------------------------|

  |               |                |               |
|------------------------------1-|--------------------------------|
|----------------4---------------|----------------4---------------|
|2-------------------------2-----|--------------------------------|
|--------------------------------|--------------------------------|

  |               |                |               |
|--------------------------------|--------------------------------|
|--------------------------------|2-------------------------------|
|--------------2-----------------|--------------------------------|
|0-------------------------------|----------------0---------------|

  |               |                |               |
|--------------------------------|--------------------------------|
|--------------------------------|--------------------------------|
|--------------2---------------4-|--------------2-----------------|
|3-------------------------------|--------------------------------|

  |               |                |               |
|--------------------------------|4-------------------------------|
|--------------------------------|--------------------------------|
|2-------------------------------|--------------------------------|
|--------------------------------|--------------------------------|

  |               |                |               |
|--------------------------------|--------------------------------|
|--------------------------------|4-------------------------------|
|4-------------------------------|--------------------------------|
|--------------------------------|--------------------------------|

  |               |                |               |
|--------------------------------|--------------------------------|
|--------------------------------|0-----------------4-------------|
|2---------------4---------------|--------------------------------|
|--------------------------------|--------------------------------|

  |               |                |               |
|--------------------------------|--------------------------------|
|--------------------------------|--------------------------------|
|--------------------------------|--------------------------------|
|--2-------------2---------------|--2-------------2---------------|

  |               |                |               |
|--------------------------------|4-------------------------------|
|----------------4---------------|--------------------------------|
|2-------------------------------|----------------2---------------|
|--------------------------------|--------------------------------|

  |               |                |               |
|2---------------4---------------|6---------------4---------2-----|
|--------------------------------|--------------------------------|
|--------------------------------|--------------------------------|
|--------------------------------|--------------------------------|

  |               |                |               |
|--------------------------------|1---------------1---------------|
|----------------2---------------|--------------------------2-----|
|4-------------------------------|----------------4---------------|
|--------------------------------|--------------------------------|

  |               |                |               |
|--------------------------------|--------------------------------|
|--------------------------------|--------------4-----------------|
|----------------1---------------|4-------------------------4---2-|
|2-------------------------------|--------------------------------|

  |               |                |               |
|--------------------------------|4-------------------------------|
|----------------4---------------|--------------4-----------------|
|--------------------------------|--------------------------2-----|
|--------------------------------|--------------------------------|

  |               |                |               |
|2---------------6---------------|2-------------------------------|
|--------------------------------|--------------2-----------------|
|--------------------------------|------------------------------4-|
|--------------------------------|--------------------------------|

  |               |                |               |
|------------------------------1-|--------------------------------|
|----------------2---------------|----------------2---------------|
|--------------------------------|--------------------------4-----|
|--------------------------------|--------------------------------|

  |               |                |               |
|----------------3-------------6-|--------------8-----------------|
|4-------------------------------|--------------------------------|
|--------------------------------|------------------------------2-|
|--------------------------------|--------------------------2-----|

  |               |                |               |
|--------------------------------|--------------------------------|
|----------------4---------------|--------------4-----------------|
|--------------------------------|--------------------------------|
|--------------------------------|--------------------------------|

  |               |                |               |
|------------------------------1-|--------------------------------|
|----------------4---------------|----------------4---------------|
|2-------------------------2-----|--------------------------------|
|--------------------------------|--------------------------------|

  |               |                |               |
|--------------------------------|--------------------------------|
|--------------------------------|2-------------------------------|
|--------------2-----------------|--------------------------------|
|0-------------------------------|----------------0---------------|

  |               |                |               |
|--------------------------------|--------------------------------|
|--------------------------------|--------------------------------|
|--------------2---------------4-|--------------2-----------------|
|3-------------------------------|--------------------------------|

  |               |                |               |
|--------------------------------|4-------------------------------|
|--------------------------------|--------------------------------|
|2-------------------------------|--------------------------------|
|--------------------------------|--------------------------------|

  |               |                |               |
|--------------------------------|--------------------------------|
|--------------------------------|4-------------------------------|
|4-------------------------------|--------------------------------|
|--------------------------------|--------------------------------|

  |               |                |               |
|--------------------------------|--------------------------------|
|--------------------------------|--------------------------------|
|2-------------------------2-----|--------------------------------|
|--------------------------------|--------------------------------|

  |               |                |               |
|--------------------------------|--------------------------------|
|--------------------------------|--------------------------------|
|--2-----------------------2-----|--------------------------------|
|--------------------------------|--------------------------------|

  |               |                |               |
|--------------------------------|--------------------------------|
|--------------------------------|--------------------------------|
|--------------------------------|2-------------------------------|
|0---------------4---------------|----------------0---------------|

  |               |                |               |
|--------------------------------|--------------------------------|
|--------------------------------|--------------4---------------1-|
|1-------------------------------|4-------------------------------|
|----------------2---------------|--------------------------------|

  |               |                |               |
|--------------------------------|--------------------------------|
|----------------1---------------|----------------1---------------|
|--------------------------------|1-------------------------------|
|--------------------------------|--------------------------------|

  |               |                |               |
|--------------------------------|--------------------------------|
|--------------------------------|1-------------------------------|
|----------------2---------------|----------------2---------------|
|4-------------------------------|--------------------------------|

  |               |                |               |
|----------------1-------------6-|--------------1-----------------|
|--------------------------------|--------------------------------|
|4-------------------------------|--------------------------4-----|
|--------------------------------|--------------------------------|

  |               |                |               |
|--------------------------------|--------------------------------|
|--------------------------------|--------------4-----------------|
|----------------1-------------4-|--------------------------------|
|2-------------------------------|--------------------------------|

  |               |                |               |
|--------------------------------|1-------------------------------|
|----------4---------------------|--------------------------------|
|--------------------------------|--------------------------------|
|--------------------------------|--------------------------------|

  |               |                |               |
|--------------------------------|--------------------------------|
|--------------------------------|--------------------------------|
|--------------------------------|------------------------------2-|
|--------------------------------|--------------------------------|

  |               |                |               |
|--------------------------------|--------------------------------|
|--------------1-----------------|4---------------1---------------|
|--------------------------------|--------------------------2-----|
|--------------------------------|--------------------------------|

  |               |                |               |
|--------------------------------|--------------------------------|
|----------------2---------------|----------------2---------------|
|0-------------------------------|0-------------------------------|
|--------------------------------|--------------------------------|

  |               |                |               |
|--------------------------------|1-------------------------------|
|----------------2---------------|----------------2---------------|
|4-------------------------------|--------------------------------|
|--------------------------------|--------------------------------|

  |               |                |               |
|--------------------------------|3---------------6---------------|
|1---------------4---------------|--------------------------------|
|--------------------------------|--------------------------------|
|--------------------------------|--------------------------------|

  |               |                |               |
|--------------------------------|--------------------------------|
|--------------------------------|--------------------------------|
|2-------------------------------|--------------------------------|
|--------------------------------|4-------------------------------|

  |               |                |               |
|--------------------------------|--------------------------------|
|--------------------------------|--------------------------------|
|4-------------------------------|--------------------------------|
|--------------------------2-----|--------------------------------|

  |               |                |               |
|--------------------------------|--------------------------------|
|--------------------------------|--------------------------------|
|2-------------------------------|--------------------------------|
|--------------------------------|4-------------------------------|

  |               |                |               |
|--------------------------------|----------------6---------------|
|--------------------------------|--------------------------------|
|4-------------------------------|--------------------------------|
|--------------------------2-----|--------------------------------|

  |               |                |               |
|--------------------------------|--------------------------------|
|--------------------------------|--------------------------------|
|2-------------------------------|--------------------------------|
|--------------------------------|----------4---------------------|

  |               |                |               |
|--------------------------------|--------------------------------|
|--------------------------------|--------------------------------|
|4-------------------------------|--------------------------------|
|--------------------------------|--------------------------------|




Created with TablEdit http://www.tabledit.com/

     
Добавлено: 28.07.2013
Другие материалы по этой песне:
  • Аккорды и текст

Страница создана 28.07.2013
http://primanota.ru/frank-sinatra/thats-why-the-lady-is-a-tramp-chords.htm
Привет, Гость.
Предлагаем пройти революционный курс по гитаре.
Подарок от PrimaNota.Ru, забирай!