PrimaNota.ru - самый крупный в мире бесплатный архив песенных текстов, аккордов, табулатур и нот


Frank Sinatra - Thats life jazzier - бас-таба, видео

Регистрация Запомнить меня
Войти через:  Facebook Google Twitter Vk Yandex Mail.ru

Frank Sinatra - Thats life jazzier - бас-таба, видео

Печатать
Просмотров: 113



Date: Sat, 8 Jun 2002 15:58:55 +0300
From: =ISO-8859-1Qjan_bj=F6rklund= 
Subject: s/sinatra_frank/thats_life.btab

frank_sinatra_that's_life.btab(jazzier)

Basstab by Jan Bjorklund, Finland 
You are welcome to request for basstabs 
Bienvenidos a pedirme transcripciones para el bajo 
Fingering and positions as suggested by TablEdit. 

TablEdited by Jan Bjorklund
Tuning : E A D G 	Time Signature: 4/4

 |       |       |       |        |       |       |       |        
|0-------------------------------|--------------------------------|
|----------------0---------------|----------------4-------------3-|
|--------------------------------|2-------------------------------|
|------------------------------3-|--------------------------------|

 |       |       |       |        |       |       |       |        
|--------------------------------|--------------------------------|
|2---------------2---------------|--------------------------------|
|------------------------1-------|1-----1-3-------3---------------|
|----------------------0---------|--------------------------------|

 |       |       |       |        |       |       |       |        
|0-------------------------------|--------------------------------|
|--------------------------------|2---2---0-----------------------|
|----------------3-----3-2-------|----------------3-------2-------|
|--------------------------------|--------------------------------|

 |       |       |       |        |       |       |       |        
|--------------------------------|--------------------------------|
|----------------2---------------|----------------------2-0-------|
|0-----------------------------1-|0---------------0---------------|
|--------------------------------|--------------------------------|

 |       |       |       |        |       |       |       |        
|----------------7---------------|--------------------------------|
|5-------------------------------|----------------4---------------|
|--------------------------------|2-----------------------------2-|
|--------------------------------|--------------------------------|

 |       |       |       |        |       |       |       |        
|--------------------------------|--------------------------------|
|2---------------2---------------|------------------------2-------|
|------------------------1-------|0-------2-------4---------------|
|--------------------------------|--------------------------------|

 |       |       |       |        |       |       |       |        
|--------7-----------------------|--------------------------------|
|5-----5---------4---------------|2---2---0-----------------------|
|------------------------8-------|----------------3-------2-------|
|--------------------------------|--------------------------------|

 |       |       |       |        |       |       |       |        
|------------------------------2-|0-------------0-----------------|
|----------------0---------------|----------------0-------------0-|
|0---------0-0-------------------|--------------------------------|
|--------------------------------|--------------------------------|

 |       |       |       |        |       |       |       |        
|0-------1-------2-------3-------|4-------5-------6-------7-------|
|--------------------------------|--------------------------------|
|--------------------------------|--------------------------------|
|--------------------------------|--------------------------------|

 |       |       |       |        |       |       |       |        
|----------------5---------------|--------0-----------------------|
|--------5---------------5-------|--------------------------------|
|3---------------------------4---|3---------------3-------1-----1-|
|--------------------------------|------3-------3-----------------|

 |       |       |       |        |       |       |       |        
|--------------------------------|2-------0-----------------------|
|------------------------2-------|----------------4-------2-------|
|0-------2-------4---------------|--------------------------------|
|--------------------------------|--------------------------------|

 |       |       |       |        |       |       |       |        
|----------------7---------------|--------------------------------|
|--------7---------------7-------|0-------0-------0-----0-0-----0-|
|5---------------------------6---|--------------------------------|
|--------------------------------|--------------------------------|

 |       |       |       |        |       |       |       |        
|--------12----------------------|4-------------------------------|
|----------------12------9-------|----------------1-------4-------|
|10------------------------------|--------2-----------------------|
|--------------------------------|--------------------------------|

 |       |       |       |        |       |       |       |        
|--------9-----------------------|2-------------------------------|
|----------------9---------------|--------2-----------------------|
|7-----------------------10------|----------------0-----0-3-------|
|--------------------------------|--------------------------------|

 |       |       |       |        |       |       |       |        
|0-------0-----------------------|--------4-----------------------|
|----------------4-----4---------|2---------------5-------2-------|
|------------------------2-----2-|--------------------------------|
|--------------------------------|--------------------------------|

 |       |       |       |        |       |       |       |        
|--------------------------------|--------------------------------|
|------------------------2-------|0-------2-------3-------4-------|
|0-------2-------4---------------|------0---------------0---------|
|--------------------------------|--------------------------------|

 |       |       |       |        |       |       |       |        
|------------------------5-------|--------12----------------------|
|5-------5-------3-----3---------|----------------12------9-------|
|--------------------------------|10------------------------------|
|------3-------------------------|--------------------------------|

 |       |       |       |        |       |       |       |        
|----------------4-------7-------|--------------------------------|
|5-----5-7-----------------------|----------------1-------4-------|
|--------------------------------|2-----2-4-----------------------|
|--------------------------------|--------------------------------|

 |       |       |       |        |       |       |       |        
|--------------------------------|--------------------------------|
|2-------1-------2---------------|--------------------------------|
|------------------------1-------|1-------3-------3-------3-------|
|--------------------------------|--------------------------------|

 |       |       |       |        |       |       |       |        
|--------7-----------------------|------------------------4-------|
|5-------------------------------|2-------4-------5-----------2---|
|------5-------5-----------------|--------------------------------|
|----------------8-----8-7-------|--------------------------------|

 |       |       |       |        |       |       |       |        
|--------------------------------|--------------------------------|
|------------------------2-------|------------------------0-------|
|0-------2-------4---------------|0---0---1-------0---------------|
|------0---------------0-------0-|--------------------------------|

 |       |       |       |        |       |       |       |        
|--------12----------------------|--------------------------------|
|----------------12------9-------|----------------1-------4-------|
|10------------------------------|2-----2-4-----------------------|
|--------------------------------|--------------------------------|

 |       |       |       |        |       |       |       |        
|--------------------------------|--------------------------------|
|2-------2-------2---------------|--------2-----------------------|
|------------------------1-------|0---------------4-------0-------|
|------0-------------------------|--------------------------------|

 |       |       |       |        |       |       |       |        
|--------7-----------------------|------------------------4-------|
|5---------------4---------------|2-------4-------5---------------|
|------5-------5---------8-----8-|--------------------------------|
|----------------------2---------|--------------------------------|

 |       |       |       |        |       |       |       |        
|----------------7---------------|----------------4-------7-------|
|------------------------7-------|5-------7-----------------------|
|--------6-----------------------|------5---------------5-------5-|
|5---5---------------------------|--------------------------------|

 |       |       |       |        |       |       |       |        
|0-------1-------2-------3-------|4-------5-------6-------7-------|
|--------------------------------|--------------------------------|
|--------------------------------|--------------------------------|
|--------------------------------|--------------------------------|

 |       |       |       |        |       |       |       |        
|5-------------------------------|--------------------------------|
|----------------2-------5-------|--------------------------------|
|--------3-----------------------|3-----3-2-------3-----3-1-------|
|--------------------------------|--------------------------------|

 |       |       |       |        |       |       |       |        
|2-------------------------------|----------------0-------2-------|
|----------------0-------1-------|2-------4-----------------------|
|--------4-----------------------|--------------------------------|
|--------------------------------|--------------------------------|

 |       |       |       |        |       |       |       |        
|------------------------2-------|--------2-----------------------|
|0-------2-------4---------------|0---------------0-------0-----0-|
|------0---------------0-------0-|--------------------------------|
|--------------------------------|--------------------------------|

 |       |       |       |        |       |       |       |        
|----------------12--------------|--------4-----------------------|
|--------12--------------12------|----------------4-------1-------|
|10--------------------------3---|2-------------------------------|
|--------------------------------|--------------------------------|

 |       |       |       |        |       |       |       |        
|------------------------4-------|2-------------------------------|
|2-------4-------5-----------2---|--------2-----------------------|
|--------------------------------|----------------0-----0-3-----3-|
|--------------------------------|--------------------------------|

 |       |       |       |        |       |       |       |        
|0-----0-------------------------|------------------------4-------|
|--------3-------4---------------|2-------4-------5-------------2-|
|------------------------2-------|--------------------------------|
|----------------------2---------|------0-------------------------|

 |       |       |       |        |       |       |       |        
|--------------------------------|----------------7---------------|
|--------------------------------|--------7---------------7---6---|
|0-------2-------3-------4-------|5-------------------------------|
|--------------------------------|--------------------------------|

 |       |       |       |        |       |       |       |        
|--------7-----------------------|----------------4-------7-------|
|5-----------------------4-------|5-------7-----------------------|
|------5-------5-8---------------|--------------------------------|
|--------------------------------|--------------------------------|

 |       |       |       |        |       |       |       |        
|----------------7---------------|--------------------------------|
|5-------------------------------|----------------4---------------|
|--------------------------------|2-------------------------------|
|--------------------------------|--------------------------------|

 |       |       |       |        |       |       |       |        
|--------------------------------|--------------------------------|
|2---------------2---------------|------------------------------4-|
|------------------------1-------|1-----1-3-------3---------------|
|--------------------------------|--------------------------------|

 |       |       |       |        |       |       |       |        
|0-------------------------------|----------------9---------------|
|--------------------------------|------------9-------9-----------|
|----------------3-------2-------|7-----------------------7-------|
|--------------------------------|--------------------------------|

 |       |       |       |        |       |       |       |        
|--------------------------------|--------------------------------|
|----------------2---------------|------------------------0-------|
|0-----------------------------0-|0---------------0---------------|
|--------------------------------|--------------------------------|

 |       |       |       |        |       |       |       |        
|0-------------------------------|----------------4---------------|
|----------------0---------------|------------4-------4-----------|
|--------------------------------|2-----------------------2-------|
|--------------------------------|--------------------------------|

 |       |       |       |        |       |       |       |        
|--------------------------------|--------------------------------|
|2---------------2---------------|----------------2---------------|
|------------------------1-------|0-------------------------------|
|--------------------------------|--------------------------------|

 |       |       |       |        |       |       |       |        
|--------7-----------------------|----------------4---------------|
|5-----5---------4---------------|2-----------------------------2-|
|------------------------8-------|--------------------------------|
|--------------------------------|--------------------------------|

 |       |       |       |        |       |       |       |        
|------------------------------2-|--------12----------------------|
|----------------0---------------|----------------12------9-------|
|0-------------------------------|10------------------------------|
|--------------------------------|--------------------------------|

 |       |       |       |        |       |       |       |        
|0-------1-------2-------3-------|4-------5-------6-------7-------|
|--------------------------------|--------------------------------|
|--------------------------------|--------------------------------|
|--------------------------------|--------------------------------|

 |       |       |       |        |       |       |       |        
|--------0-----------------------|--------0-----------------------|
|----------------2---------------|--------------------------------|
|3-----------------------3-------|3-----3---------3-------1-----1-|
|------3-----------------------3-|--------------------------------|

 |       |       |       |        |       |       |       |        
|--------------------------------|--------------------------------|
|--------------------------------|--------0-------1-------2-------|
|0-------1-------2-------3-------|4-------------------------------|
|--------------------------------|--------------------------------|

 |       |       |       |        |       |       |       |        
|--------2-----------------------|--------2-----------------------|
|0---------------4-------0-------|0-----0---------0-----0-0-----0-|
|------0-----------------------0-|--------------------------------|
|--------------------------------|--------------------------------|

 |       |       |       |        |       |       |       |        
|--------12----------------------|--------------------------------|
|----------------12------9-------|----------------1-------4-------|
|10------------------------------|2-------4-----------------------|
|--------------------------------|------2---------------2-------2-|

 |       |       |       |        |       |       |       |        
|------------------------4-------|--------------------------------|
|2-------4-------5-------------2-|--------2-----------------------|
|--------------------------------|0---------------0-----0-3-----3-|
|------0-------------------------|--------------------------------|

 |       |       |       |        |       |       |       |        
|0-----0-------------------------|--------4-----------------------|
|--------3-------4-----4---------|2---------------5-------2-------|
|------------------------2-------|------2-----------------------2-|
|--------------------------------|--------------------------------|

 |       |       |       |        |       |       |       |        
|--------2-----------------------|------------------------2-------|
|----------------2---------------|0-------2-------4---------------|
|0-----------------------4-------|--------------------------------|
|--------------------------------|--------------------------------|

 |       |       |       |        |       |       |       |        
|--------7-------4---------------|----------------7-------------7-|
|5-----------------------5-------|5-------------------------------|
|------5-----------------------5-|--------------------------------|
|--------------------------------|--------------------------------|

 |       |       |       |        |       |       |       |        
|12------------------------------|--------------------------------|
|--------------------------------|--------------------------------|
|--------------10----------------|--------------------------------|
|--------------------------------|--------------------------------|


Created with TablEdit http://www.tabledit.com/

............................................................
Maksuton sдhkцposti aina kдytцssд http://luukku.com
Kuukausimaksuton MTV3 Internet-liittymд www.mtv3.fi/liittyma


Добавлено: 12.11.2013
Другие материалы по этой песне:
  • Аккорды и текст

Страница создана 12.11.2013
http://primanota.ru/frank-sinatra/thats-life-jazzier-chords.htm
Привет, Гость.
Предлагаем пройти революционный курс по гитаре.
Подарок от PrimaNota.Ru, забирай!