PrimaNota.ru - самый крупный в мире бесплатный архив песенных текстов, аккордов, табулатур и нот


Frank Sinatra - Stay With Me - аккорды и текст, видео

Регистрация Запомнить меня
Войти через:  Facebook Google Twitter Vk Yandex Mail.ru

Frank Sinatra - Stay With Me - аккорды и текст, видео

Печатать
Просмотров: 116
Stay With Me
Frank Sinatra
---------------------------------------------------------------------------
                Stay With Me - Frank Sinatra
---------------------------------------------------------------------------
Tabbed by: maguri
Tuning: Standard

Frank Sinatra 
Stay With Me 
(Jerome Moross/Carolyn Leigh)

---------------------------------------------------------------------------

capo: 3rd fret
play: C
key: Eb

---------------------------------------------------------------------------
CHORDS

          E-A-D-G-B-e
Eaug      x-x-2-1-1-0
D7/F#     2-x-0-2-1-2
F/G       3-x-3-2-1-x
C#dim7    x-4-5-3-5-x
Dm/C      x-3-x-2-3-1
G/B       x-2-0-0-0-x
G/A       x-0-0-x-x-x
G/F       1-x-0-x-x-x
Cadd9     x-3-2-0-3-0
C/G       3-x-2-0-1-0

---------------------------------------------------------------------------

CODA
  C     Cadd9 C  Cadd9 C   Am C/G   C
  1 + 2 + 3 + 4 +  1 + 2 + 3 + 4 +  
e|----------------|----------------|----------------|----------------|
B|1-------3---1---|3---1---1---1---|1---------------|----------------|
G|0-------0---0---|0---0---2---0---|0---------------|----------------|
D|2-------2---2---|2---2---2---2---|2---------------|----------------|
A|3---------------|--------0-------|3---------------|----------------|
E|----------------|------------3---|----------------|----------------|

---------------------------------------------------------------------------


INTRO
| G |
(freely)

| C Eaug | F D7/F# G  G/F | Em Am | Dm7   Bb G | F |
| Dm7 F/G | C |


VERSE
G         C            Am
Should my heart not be humble
          Bb           Gsus4 
Should my eyes fail to see
G         C              Am
Should my feet sometimes stumble 
       Bb             G7
On the way, stay with me
         C
Like the lamb that in springtime 
C#dim7  Dm  Dm/C     G/B  G/A
Wanders far from the fold
G     G/F Em       Am      Dm7
Comes the darkness and the frost
Bb G   F
I  get lost
Dm G    C
I  grow cold


MIDDLE 8
  B7   Em           A7
I grow cold, I grow weary, 
      Dm
And I know I have sinned
      Fm         Bb
And I go seeking shelter 
      Eb         Gsus4
And I cry in the wind


VERSE
G        C           Am
Though I grope and I blunder 
        Bb           Gsus4 
And I'm weak and I'm wrong
G          C            Am
Though the road buckles under 
        Bb          G
Where I walk, walk along
G/F G/E  G/D C
    Till I   find to my wonder 
C#dim7 Dm   Dm/C     G/B  G/A
Every  path leads to Thee
G   G/F  Em    Am    Dm7
All that I can do is pray
Bb   G    F
Stay with me
Dm   F/G  C
Stay with me


CODA
| C   Cadd9 C | Cadd9 C Am C/G | C
Добавлено: 28.10.2015
Другие материалы по этой песне:
  • Аккорды и текст

Страница создана 28.10.2015
http://primanota.ru/frank-sinatra/stay-with-me-chords.htm
Привет, Гость.
Предлагаем пройти революционный курс по гитаре.
Подарок от PrimaNota.Ru, забирай!