PrimaNota.ru - самый крупный в мире бесплатный архив песенных текстов, аккордов, табулатур и нот


Frank Sinatra - Stardust - текст песни, бас-таба, перевод, видео

Регистрация Запомнить меня
Войти через:  Facebook Google Twitter Vk Yandex Mail.ru

Frank Sinatra - Stardust - текст песни, бас-таба, перевод, видео

Печатать
Просмотров: 365
stardust_frank sinatra

TablEdited by Jan Bjorklund    jani_bjorklund@yahoo.se>
You are welcome to request for tabs!
Fingering and positions as suggested by TablEdit, please use common sense.


TablEdited by Jan Bjorklund
Tuning : E A D G 	Time Signature: 4/4

  |               |               |               |
|--------------------------------0-------------------------------|
|----------------------------------------------------------------|
|3-----------------------------------------------------------3---|
|----------------------------------------------------------------|

  |               |               |               |
|----------------------------------------------------------------|
|3---------------------------------------------------------------|
|--------------------------------3-------------------------------|
|------------------------------------------------------------1---|

  |               |               |               |
|----------------------------------------------------------------|
|2---------------------------------------------------------------|
|--------------------------------2-------------------------------|
|----------------------------------------------------------------|

  |               |               |               |
|----------------------------------------------------------------|
|--------------------------------2-------------------------------|
|0-----------------------------------------------------------0---|
|----------------------------------------------------------------|

  |               |               |               |
|----------------------------2---0-----------0---7---------------|
|0---------------------------------------------------------------|
|----------------------------------------------------------------|
|----------------------------------------------------------------|

  |               |               |               |
|----------------------------------------------------------------|
|------------------------------------------------------------3---|
|3-------------------------------0-------------------------------|
|----------------------------------------------------------------|

  |               |               |               |
|----------------------------------------------------------------|
|4-----------------------------------------------4---------------|
|--------------------------------2-----------2-------------------|
|--------------------------2-------------------------------------|

  |               |               |               |
|------------------------------------------------0---------------|
|2---------------1---------------0-------------------------------|
|----------------------------------------------------------------|
|----------------------------------------------------------------|

  |               |               |               |
|--------------------------------0-------------------------------|
|----------------------------------------------------------------|
|3---------------------------------------------------------------|
|----------------------------------------------------------------|

  |               |               |               |
|--------------------------------5-------------------------------|
|3-----------------------------------------------------------3---|
|----------------------------------------------------------------|
|----------------------------------------------------------------|

  |               |               |               |
|----------------------------------------------------------------|
|2---------------------------------------------------------------|
|--------------------------------2-------------------------------|
|----------------------------------------------------------------|

  |               |               |               |
|----------------------------------------------------------------|
|--------------------------------2-------------------------------|
|0-----------------------------------------------------------0---|
|----------------------------------------------------------------|

  |               |               |               |
|--------------------------------0-------------------------0-----|
|0-------------------2---3---------------------------------------|
|----------------------------------------------------------------|
|----------------------------------------------------3-----------|

  |               |               |               |
|----------------------------------------------------------------|
|------------------------------------------------------------2---|
|3-------------------3-----3-----0-------------------------------|
|----------------------------------------------------------------|

  |               |               |               |
|--------------------------------0-------------------------------|
|0-------------------2---3---------------------------------------|
|----------------------------------------------------------------|
|----------------------------------------------------------------|

  |               |               |               |
|------------------------------------------------------------0---|
|----------------------------------------------------------------|
|3-------------------------------3-------------------------------|
|----------------------------------------------------------------|

  |               |               |               |
|------------10--5---------------3---------------4---------------|
|3---------------------------------------------------------------|
|----------------------------3-------------------------------3---|
|----------------------------------------------------------------|

  |               |               |               |
|5---------------3---------------1---------------0---------------|
|----------------------------------------------------------------|
|----------------------------3-------------------------------3---|
|----------------------------------------------------------------|

  |               |               |               |
|----------------10--------------5---------------1---------------|
|3---------------------------------------------------------------|
|----------------------------------------------------------------|
|----------------------------------------------------------------|

  |               |               |               |
|----------------------------------------------------------------|
|--------------------------------0---------------3---------------|
|1---------------3-----------------------------------------------|
|----------------------------------------------------------------|

  |               |               |               |
|----------------0-------------------------------2---------------|
|--------------------------------0-------------------------------|
|3-------------------------------------------0---------------0---|
|----------------------------------------------------------------|

  |               |               |               |
|--------------------------------2-------------------------------|
|2---------------2-------------------------------2---------------|
|----------------------------------------------------------------|
|----------------------------------------------------------------|

  |               |               |               |
|7-----------7---2-----------------------------------------------|
|--------------------------------0-----------0-------------------|
|------------------------------------------------0-----------0---|
|----------------------------------------------------------------|

  |               |               |               |
|------------------------------------------------2---------------|
|0---------------2---------------3-------------------------------|
|----------------------------------------------------------------|
|----------------------------------------------------------------|

  |               |               |               |
|0---------------1---------------0---------------0---------------|
|----------------------------------------------------------------|
|----------------------------------------------------------------|
|----------3-----------------------------------------------------|

  |               |               |               |
|0---------------2---------------4---------------7---------------|
|----------------------------------------------------------------|
|----------------------------------------------------------------|
|----------------------------------------------------------------|

  |               |               |               |
|----------------0-----------------------------------------------|
|--------------------------------0-----------0---0---------------|
|3-----------3---------------------------------------------------|
|----------------------------------------------------------------|

  |               |               |               |
|--------------------------------2-------------------------------|
|2-----------2-----------------------2---------------------------|
|----------------------------------------3-------0---------------|
|----------------4-----------------------------------------------|

  |               |               |               |
|7---------------2-----------------------------------------------|
|--------------------------------4-------------------------------|
|------------0-----------------------------------0---------------|
|--------------------------------------------2-------------------|

  |               |               |               |
|------------------------------------------------2---------------|
|0---------------2---------------4-------------------------------|
|------------0-------------------------------0---------------0---|
|----------------------------------------------------------------|

  |               |               |               |
|0---------------0---------------0-------------------------------|
|------------------------------------------------4---------------|
|----------------------------------------------------------------|
|----------------------------------------------------------------|

  |               |               |               |
|0---------------------------------------------------------------|
|------------------------------------------------2---------------|
|----------------4---------------3-----------3-------------------|
|----------3-----------------------------------------------------|

  |               |               |               |
|--------------------------------0---------------1---------------|
|3---------------4-----------------------------------------------|
|----------------------------------------------------------------|
|----------------------------------------------------------------|

  |               |               |               |
|2---------------3---------------4---------------5---------------|
|----------------------------------------------------------------|
|----------------------------------------------------------------|
|----------------------------------------------------------------|

  |               |               |               |
|----------------------------------------------------------------|
|3-----------3---1---------------0-------------------------------|
|------------------------------------------------3---------------|
|----------------------------------------------------------------|

  |               |               |               |
|----------------------------------------------------------------|
|--------------------------------0---------------3---------------|
|1---------------3-----------------------------------------------|
|------------1-------------------------------1---------------1---|

  |               |               |               |
|----------------------------------------------------------------|
|--------------------------------0---------------0---------------|
|3---------------3-----------------------------------------------|
|----------------------------------------------------------------|

  |               |               |               |
|----------------4-----------------------------------------------|
|2-----------2---------------------------------------------------|
|--------------------------------0---------------4---------------|
|----------------------------------------------------------------|

  |               |               |               |
|----------------------------------------------------------------|
|0---------------0---------------0-----------0-------------------|
|------------------------------------------------0-----------0---|
|----------------------------------------------------------------|

  |               |               |               |
|------------------------------------------------2---------------|
|0-----------0---2---------------3---------------------------0---|
|----------------------------------------------------------------|
|----------------------------------------------------------------|

  |               |               |               |
|----------------5---------------2-------------------------------|
|3-----------------------------------------------3---------------|
|----------------------------------------------------------------|
|----------------------------------------------------------------|

  |               |               |               |
|----------------5-----------------------------------------------|
|3---------------------------------------------------------------|
|------------3---------------3---1-----------1---2---------------|
|----------------------------------------------------------------|

  |               |               |               |
|----------------0-----------------------------------------------|
|--------------------------------2-------------------------------|
|3-----------------------------------------------3---------------|
|------------3-----------------------------------------------3---|

  |               |               |               |
|----------------4-----------------------------------------------|
|2-----------------------------------------------2---------------|
|--------------------------------0-------------------------------|
|--------------------------------------------0---------------0---|

  |               |               |               |
|----------------7---------------2-------------------------------|
|0-----------------------------------------------3---------------|
|----------------------------------------------------------------|
|----------------------------------------------------------------|

  |               |               |               |
|0---------------12--------------7---------------5---------------|
|----------------------------------------------------------------|
|----------------------------------------------------------------|
|----------------------------------------------------------------|

  |               |               |               |
|----------------------------------------------------------------|
|--------------------------------0---------------1---------------|
|3---------------4-----------------------------------------------|
|----------------------------------------------------------------|

  |               |               |               |
|------------------------------------------------0---------------|
|2---------------3---------------4-------------------------------|
|----------------------------------------------------------------|
|----------------------------------------------------------------|

  |               |               |               |
|--------------------------------0---------------1---------------|
|3---------------4-----------------------------------------------|
|----------------------------------------------------------------|
|----------------------------------------------------------------|

  |               |               |               |
|2---------------3---------------4---------------5---------------|
|----------------------------------------------------------------|
|----------------------------------------------------------------|
|----------------------------------------------------------------|

  |               |               |               |
|----------------5---------------1-------------------------------|
|3-----------------------------------------------3---------------|
|------------3-----------------------------------------------3---|
|----------------------------------------------------------------|

  |               |               |               |
|----------------------------------------------------------------|
|--------------------------------0---------------3---------------|
|1---------------3-----------------------------------------------|
|----------------------------------------------------------------|

  |               |               |               |
|--------------------------------7---------------2---------------|
|----------------------------------------------------------------|
|3---------------4-----------------------------------------------|
|----------------------------------------------------------------|

  |               |               |               |
|----------------------------------------------------------------|
|2---------------------------------------------------------------|
|--------------------------------0---------------4---------------|
|----------------4-----------------------------------------------|

  |               |               |               |
|----------------------------------------------------------------|
|0---------------0---------------0-------------------------------|
|------------------------------------------------0-----------0---|
|----------------------------------------------------------------|

  |               |               |               |
|----------------2-----------------------------------------------|
|0-------------------------------3---------------0---------------|
|------------0-----------------------------------------------0---|
|----------------------------------------------------------------|

  |               |               |               |
|0-----------0---7---------------0-----------0-------------------|
|------------------------------------------------4---------------|
|----------------------------------------------------------------|
|----------------------------------------------------------------|

  |               |               |               |
|0---------------2---------------4---------------7---------------|
|----------------------------------------------------------------|
|----------------------------------------------------------------|
|----------------------------------------------------------------|

  |               |               |               |
|----------------------------------------------------------------|
|----------------1---------------0---------------0---------------|
|3---------------------------------------------------------------|
|----------------------------------------------------------------|

  |               |               |               |
|----------------------------------------------------------------|
|2-----------------------------------------------2---------------|
|--------------------------------0-------------------------------|
|----------------4-----------------------------------------------|

  |               |               |               |
|----------------2-----------------------------------------------|
|0-------------------------------4---------------2---------------|
|----------------------------------------------------------------|
|----------------------------------------------------------------|

  |               |               |               |
|----------------------------------------------------------------|
|0---------------2---------------3---------------4---------------|
|----------------------------------------------------------------|
|----------------------------------------------------------------|

  |               |               |               |
|0-------------------------------0---------------1---------------|
|----------------4-----------------------------------------------|
|----------------------------------------------------------------|
|------------------------------------------3---------------------|

  |               |               |               |
|0-----------0---7-----------------------------------------------|
|----------------------------------------------------------------|
|--------------------------------3-----------3---3---------------|
|----------------------------------------------------------------|

  |               |               |               |
|--------------------------------0---------------1---------------|
|3---------------4-----------------------------------------------|
|----------------------------------------------------------------|
|----------------------------------------------------------------|

  |               |               |               |
|2---------------3---------------4---------------5---------------|
|----------------------------------------------------------------|
|----------------------------------------------------------------|
|----------------------------------------------------------------|

  |               |               |               |
|----------------0---------------1---------------5---------------|
|3-----------------------------------------------------------3---|
|----------------------------------------------------------------|
|------------1---------------------------------------------------|

  |               |               |               |
|----------------------------------------------------------------|
|--------------------------------0---------------3---------------|
|1---------------3-----------------------------------------------|
|----------------------------------------------------------------|

  |               |               |               |
|--------------------------------7---2---------------------------|
|----------------------------------------3-------0---------------|
|3---------------3-----------------------------------------------|
|----------------------------------------------------------------|

  |               |               |               |
|----------------------------------------------------------------|
|2-----------2-----------------------------------2---------------|
|--------------------------------0-----------0-------------------|
|----------------4-----------------------------------------------|

  |               |               |               |
|----------------------------------------------------------------|
|0---------------0---------------0-----------0-------------------|
|------------------------------------------------0---------------|
|----------------------------------------------------------------|

  |               |               |               |
|------------------------------------------------2---------------|
|0---------------2---------------3-------------------------------|
|------------0-------------------------------0---------------0---|
|----------------------------------------------------------------|

  |               |               |               |
|----------------0---------------2---------------5---------------|
|3-----------3---------------------------------------------------|
|----------------------------------------------------------------|
|----------------------------------------------------------------|

  |               |               |               |
|----------------------------------------------------------------|
|3---------------3-----------------------------------------------|
|--------------------------------1-----------1---1---------------|
|------------1---------------------------------------------------|

  |               |               |               |
|------------------------------------------------0---------------|
|----------------0---------------2-------------------------------|
|3---------------------------------------------------------------|
|----------------------------------------------------------------|

  |               |               |               |
|----------------4-----------------------------------------------|
|2-----------2---------------------------------------------------|
|--------------------------------0-----------0---4---------------|
|----------------------------------------------------------------|

  |               |               |               |
|7-----------------------------------------------2---------------|
|----------------0---------------3-------------------------------|
|----------------------------------------------------------------|
|----------------------------------------------------------------|

  |               |               |               |
|0---------------7---------------5---------------0---------------|
|------------0-----------------------------------------------0---|
|----------------------------------------------------------------|
|----------------------------------------------------------------|

  |               |               |               |
|----------------0-----------------------------------------------|
|--------------------------------2-------------------------------|
|3-----------------------------------------------3---------------|
|------------3-----------------------------------------------3---|

  |               |               |               |
|----------------0-----------------------------------------------|
|--------------------------------2-------------------------------|
|3-----------------------------------------------3---------------|
|----------------------------------------------------------------|

  |               |               |               |
|--------------------------------0---------------------------0---|
|----------------------------------------------------------------|
|3---------------------------------------------------------------|
|----------------------------------------------------------------|

  |               |               |               |
|5---------------------------------------------------------------|
|----------------------------------------------------------------|
|----------------------------3-----------------------------------|
|----------------------------------------------------------------|



Created with TablEdit http://www.tabledit.com/

     
Добавлено: 03.06.2013
Другие материалы по этой песне:
  • Аккорды и текст

Страница создана 23.04.2012
http://primanota.ru/frank-sinatra/stardust-chords.htm
Привет, Гость.
Предлагаем пройти революционный курс по гитаре.
Подарок от PrimaNota.Ru, забирай!