PrimaNota.ru - самый крупный в мире бесплатный архив песенных текстов, аккордов, табулатур и нот


Frank Sinatra - Sentimental Journey - текст песни, таба, видео

Регистрация Запомнить меня
Войти через:  Facebook Google Twitter Vk Yandex Mail.ru

Frank Sinatra - Sentimental Journey - текст песни, таба, видео

Печатать
Просмотров: 197
Уроки эстрадного вокала в Санкт-Петербурге
Sentimental Journey
TablEdited by Tony Crowley
Midi available from crowley@macace.net
Tuning: EADGBE  Time Signature: 4/4
h-hammer on  /=slide

 |       |       |       |        |       |       |       |        
|--------------------------------|----4-------0---4-----------0h--|
|--------------------------------|----5-------0---5-----------0h--|
|--------------------------------|----4-------0---4-----------0h--|
|--------------------------------|--------------------------------|
|--------------------------------|--------------------------------|
|--------------------5---6-----7-|0-------------------------------|

 |       |       |       |        |       |       |       |        
|4---4---4---5---4---0-----------|----4---4---0---4-------5-------|
|5---5---5-----------0-----------|----5---5---0---5---------------|
|4---4---4-----------0-----------|----4---4---0---4---------------|
|--------------------------------|--------------------------------|
|--------------------------------|--------------------------------|
|----------------------------7---|0-------------------------------|

 |       |       |       |        |       |       |       |        
|4-------3-------2---------------|----4-------0---4-----------0---|
|4-------3-------0---------------|----5-------0---5-----------0---|
|4-------3-------2---------------|----4-------0---4-----------0---|
|----------------1---------------|--------------------------------|
|----------------2---0/--1/--2---|--------------------------------|
|--------------------------------|0-------------------------------|

 |       |       |       |        |       |       |       |        
|3-------3-------3---------------|----4---4---0---4-------5-------|
|5-------5---5---5---5-----------|----5---5---0---5---------------|
|3-------3-------3---------------|----4---4---0---4---------------|
|5-------5-------5---------------|--------------------------------|
|3-------------------------------|--------------------------------|
|3-------------------------------|0-------------------------------|

 |       |       |       |        |       |       |       |        
|4---3---2---0---------------0---|4---3---2---0-------------------|
|4---3---2---0-------0---2-------|4---3---2---0-------------------|
|4---3---2---1-------------------|4---3---2---1-------------------|
|------------2-------------------|------------2-------------------|
|------------2-------------------|------------2-------------------|
|--------------------------------|--------------------0---2---0---|

 |       |       |       |        |       |       |       |        
|--------0-------0---------------|--------------------------------|
|2-------5-------5---------------|4---5---4---5---7-------5-------|
|2-------6-------6---------------|5---6---5---6---6-------6-------|
|2-------7-------7---------------|6---7---6---7---7-------7-------|
|0-------------------------------|----------------0-------0-------|
|--------------------------------|--------------------------------|

 |       |       |       |        |       |       |       |        
|--------0-------0---------------|--------------------------------|
|--------0-------0---------------|----0-------0---2-------0-------|
|1-------------------------------|3-------3-------2-------1-------|
|2-------------------------------|2-------2-------2-------2-------|
|2-------------------------------|----------------0-------2-------|
|0-------------------------------|--------------------------------|

 |       |       |       |        |       |       |       |        
|----------------2-------2-------|1---2---1---2---4-------2/------|
|--------2---------------2-------|1---2---1---2---2-------2/------|
|----3-------------------3-------|2---3---2---3---3-------3/------|
|4-----------------------4-------|3---4---3---4---4-------4/------|
|--------------------------------|--------------------------------|
|--------------------------------|--------------------------------|

 |       |       |       |        |       |       |       |        
|7-------7-------5---------------|4-------3-------2---------------|
|7-------7-------5---------------|4-------3-------2---------------|
|8-------8-------6---------------|4-------3-------2---------------|
|9-------9-------7---------------|4-------3-------2---------------|
|--------------------------------|--------------------0/--1/--2---|
|------------------------0-------|--------------------------------|

 |       |       |       |        |       |       |       |        
|----4-------0---4-----------0h--|4---4---4---5---4---0-----------|
|----5-------0---5-----------0h--|5---5---5-----------0-----------|
|----4-------0---4-----------0h--|4---4---4-----------0-----------|
|--------------------------------|--------------------------------|
|--------------------------------|--------------------------------|
|0-------------------------------|----------------------------7---|

 |       |       |       |        |       |       |       |        
|----4---4---0---4-------5-------|4-------3-------2---------------|
|----5---5---0---5---------------|4-------3-------0---------------|
|----4---4---0---4---------------|4-------3-------2---------------|
|--------------------------------|----------------1---------------|
|--------------------------------|----------------2---0/--1/--2---|
|0-------------------------------|--------------------------------|

 |       |       |       |        |       |       |       |        
|----4-------0---4-----------0---|3-------3-------3---------------|
|----5-------0---5-----------0---|5-------5---5---5---5-----------|
|----4-------0---4-----------0---|3-------3-------3---------------|
|--------------------------------|5-------5-------5---------------|
|--------------------------------|3-------------------------------|
|0-------------------------------|3-------------------------------|

 |       |       |       |        |       |       |       |        
|----4---4---0---4-------5-------|4---3---2---0---------------0---|
|----5---5---0---5---------------|4---3---2---0-------0---2-------|
|----4---4---0---4---------------|4---3---2---1-------------------|
|--------------------------------|4---3---2---2-------------------|
|--------------------------------|------------2-------------------|
|0-------------------------------|--------------------------------|

 |       |       |       |        |       |       |       |        
|7-------5-------4-------2-------|4---3---2---0-------------------|
|7-------5-------4-------2-------|4---3---2---0-----------0-------|
|8-------6-------4-------2-------|4---3---2---1-----------2-------|
|9-------7-------6-------4-------|6---5---4---2-----------1-------|
|--------------------------------|------------2-----------2-------|
|--------------------------------|--------------------------------|

 |       |       |       |        
|0-------------------------------|
|2-------------------------------|
|1-------------------------------|
|2-------------------------------|
|2-------------------------------|
|0-------------------------------|



Добавлено: 30.06.2012
Другие материалы по этой песне:
  • Аккорды и текст

Страница создана 10.04.2012
http://primanota.ru/frank-sinatra/sentimental-journey-chords.htm
Привет, Гость.
Предлагаем пройти революционный курс по гитаре.
Подарок от PrimaNota.Ru, забирай!