PrimaNota.ru - самый крупный в мире бесплатный архив песенных текстов, аккордов, табулатур и нот


Frank Sinatra - On A Clear Day - бас-таба, видео

Регистрация Запомнить меня
Войти через:  Facebook Google Twitter Vk Yandex Mail.ru

Frank Sinatra - On A Clear Day - бас-таба, видео

Печатать
Просмотров: 112
on a clear day_frank sinatra

TablEdited by Jan Bjorklund    jani_bjorklund@yahoo.se>
You are welcome to request for tabs!
Fingering and positions as suggested by TablEdit, please use common sense.


TablEdited by Jan Bjorklund
Tuning : E A D G 	Time Signature: 4/4

  |               |               |               |
|--------------------------------4-------------------6-----8-----|
|2---------------------------------------------------------------|
|----------------------------------------------------------------|
|----------------------------------------------------------------|

  |               |               |               |
|9---------9-----8---------------4---------------1---------------|
|----------------------------------------------------------------|
|----------------------------------------------------------------|
|----------------------------------------------------------------|

  |               |               |               |
|----------------------------------------------------------------|
|--------------------------------2-------------------------------|
|0---------------------------------------------------------------|
|----------------------------------------------------------------|

  |               |               |               |
|2---------------------------------------------------------------|
|--------------------------------2-----------------------2-------|
|----------------------------------------------------------------|
|----------------------------------------------------------------|

  |               |               |               |
|--------------------------------4-------------------------------|
|2---------------------------------------------------------------|
|----------------------------------------------------------------|
|----------------------------------------------------------------|

  |               |               |               |
|9-------------------------------4-----------------------4-------|
|----------------------------------------------------------------|
|----------------------------------------------------------------|
|----------------------------------------------------------------|

  |               |               |               |
|1---------1-----3---------------4---------------8---------------|
|----------------------------------------------------------------|
|----------------------------------------------------------------|
|----------------------------------------------------------------|

  |               |               |               |
|----------------------------------------------------------------|
|----------------------------------------------------------------|
|4-------------------------4-----4-------------------------4-----|
|----------------------------------------------------------------|

  |               |               |               |
|--------------------------6-----11------------------------6-----|
|4---------------------------------------------------------------|
|----------------------------------------------------------------|
|----------------------------------------------------------------|

  |               |               |               |
|--------------------------6-----11--------------6---------------|
|4---------------------------------------------------------------|
|----------------------------------------------------------------|
|----------------------------------------------------------------|

  |               |               |               |
|----------------------------------------------------------------|
|--------------------------------2-------------------2-----------|
|0-------------------------0-----------------------------3-------|
|----------------------------------------------------------------|

  |               |               |               |
|--------------------------------2-------------------------------|
|0---------------------------------------------------------------|
|----------------------------------------------------------------|
|----------------------------------------------------------------|

  |               |               |               |
|1---------------8---------------4---------------1---------------|
|----------------------------------------------------------------|
|----------------------------------------------------------------|
|----------------------------------------------------------------|

  |               |               |               |
|0-------------------------------6-------------------------------|
|----------------------------------------------------------------|
|----------------------------------------------------------------|
|----------------------------------------------------------------|

  |               |               |               |
|----------------6-----------------------------------------------|
|4---------------------------------------------------------------|
|--------------------------------4-------------------------------|
|----------------------------------------------------------------|

  |               |               |               |
|----------------------------------------------------------------|
|4-------------------------4-------------------------------------|
|--------------------------------2-------------------------------|
|----------------------------------------------------------------|

  |               |               |               |
|----------------------------------------------------------------|
|--------------------------------4-------------------------4-----|
|2-------------------------2-------------------------------------|
|----------------------------------------------------------------|

  |               |               |               |
|--------------------------------1---------------4---------------|
|2---------2-----4-----------------------------------------------|
|----------------------------------------------------------------|
|----------------------------------------------------------------|

  |               |               |               |
|----------------------------------------------------------------|
|--------------------------------0---------------4---------------|
|2---------2-----4-----------------------------------------------|
|----------------------------------------------------------------|

  |               |               |               |
|------------------------------------------------4---------------|
|--------------------4-----0-----2-------------------------------|
|2---------------------------------------------------------------|
|----------------------------------------------------------------|

  |               |               |               |
|----------------------------------------------------------------|
|----------------2-----------------------------------------------|
|0-------------------------------4---------------0---------------|
|----------------------------------------------------------------|

  |               |               |               |
|----------------6---------------2-------------------------------|
|4-----------------------------------------------4---------------|
|----------------------------------------------------------------|
|----------------------------------------------------------------|

  |               |               |               |
|----------------1---------------3---------------6---------------|
|4---------4-----------------------------------------------------|
|----------------------------------------------------------------|
|----------------------------------------------------------------|

  |               |               |               |
|----------------6-----------------------------------------------|
|4---------------------------------------------------------------|
|--------------------------------2-------------------------2-----|
|----------------------------------------------------------------|

  |               |               |               |
|--------------------------4-----9-------------------------4-----|
|2---------------------------------------------------------------|
|----------------------------------------------------------------|
|----------------------------------------------------------------|

  |               |               |               |
|--------------------------4-----9---------------4---------------|
|2---------------------------------------------------------------|
|----------------------------------------------------------------|
|----------------------------------------------------------------|

  |               |               |               |
|1-------------------------------8-------------------------------|
|----------------------------------------------------------------|
|----------------------------------------------------------------|
|----------------------------------------------------------------|

  |               |               |               |
|--------------------------------1-------------------------------|
|----------------------------------------------------------------|
|4---------------------------------------------------------------|
|----------------------------------------------------------------|

  |               |               |               |
|----------------6---2-----------1---------------8---4---1-------|
|4-----------------------4---------------------------------------|
|----------------------------------------------------------------|
|----------------------------------------------------------------|

  |               |               |               |
|--------------------------------1---------------8---4---1-------|
|----------------2-----------------------------------------------|
|0---------------------------------------------------------------|
|----------------------------------------------------------------|

  |               |               |               |
|----------------6---------------1---------------8---------------|
|4---------------------------------------------------------------|
|----------------------------------------------------------------|
|----------------------------------------------------------------|

  |               |               |               |
|--------------------------------1-------------------------8-----|
|----------------2-----------------------------------------------|
|0-------------------4---0---------------------------------------|
|----------------------------------------------------------------|

  |               |               |               |
|--------------------------------6-------------------------6-----|
|4---------------------------------------------------------------|
|----------------------------------------------------------------|
|----------------------------------------------------------------|

  |               |               |               |
|----------------------------------------------------------------|
|--------------------------------4-------------------4---1-------|
|2-------------------------2-------------------------------------|
|----------------------------------------------------------------|

  |               |               |               |
|----------------------------------------------------1-----------|
|2-------------------------2-------------------------------2-----|
|--------------------------------4-------------------------------|
|----------------------------------------------------------------|

  |               |               |               |
|----------------6---2-----------4-------------------------------|
|4-----------------------4-----------------------4---------------|
|----------------------------------------------------------------|
|----------------------------------------------------------------|

  |               |               |               |
|--------------------------4-----9-------------------------4-----|
|2---------------------------------------------------------------|
|----------------------------------------------------------------|
|----------------------------------------------------------------|

  |               |               |               |
|--------------------------4-----9---------------4---------------|
|2---------------------------------------------------------------|
|----------------------------------------------------------------|
|----------------------------------------------------------------|

  |               |               |               |
|--------------------------------2-------------------------------|
|--------------------------2-------------------------------2-----|
|0---------------------------------------------------------------|
|----------------------------------------------------------------|

  |               |               |               |
|--------------------------------2-------------------------------|
|--------------------------2---------------------2---------------|
|0---------------------------------------------------------------|
|----------------------------------------------------------------|

  |               |               |               |
|--------------------------------4-------------------------------|
|2---------------------------------------------------------------|
|----------------------------------------------------------------|
|----------------------------------------------------------------|

  |               |               |               |
|9-------------------------------4-----------------------4-------|
|----------------------------------------------------------------|
|----------------------------------------------------------------|
|----------------------------------------------------------------|

  |               |               |               |
|1-------------------------1-----8-------------------------8-----|
|----------------------------------------------------------------|
|----------------------------------------------------------------|
|----------------------------------------------------------------|

  |               |               |               |
|--------------------------1---------------------1---------------|
|----------------------------------------------------3-----------|
|4-------------------------------4-----------------------4-------|
|----------------------------------------------------------------|

  |               |               |               |
|--------------------------------6-------------------8-----9-----|
|4---------------------------------------------------------------|
|----------------------------------------------------------------|
|----------------------------------------------------------------|

  |               |               |               |
|11--------11----9---------------6---------------2---------------|
|----------------------------------------------------------------|
|----------------------------------------------------------------|
|----------------------------------------------------------------|

  |               |               |               |
|----------------------------------------------------------------|
|--------------------------------2-------------------------------|
|0---------------------------------------------------------------|
|----------------------------------------------------------------|

  |               |               |               |
|--------------------------------2-------------------------------|
|0---------------------------------------------------------------|
|----------------------------------------------------------------|
|----------------------------------------------------------------|

  |               |               |               |
|1-------------------------------8-------------------13--8-------|
|----------------------------------------------------------------|
|----------------------------------------------------------------|
|----------------------------------------------------------------|

  |               |               |               |
|0-------------------------------6-------------------12--6-------|
|----------------------------------------------------------------|
|----------------------------------------------------------------|
|----------------------------------------------------------------|

  |               |               |               |
|----------------6-------------------------------1---------------|
|4---------------------------------------------------3-----------|
|--------------------------------4-----------------------4-------|
|----------------------------------------------------------------|

  |               |               |               |
|----------------------------------------------------------------|
|4---------------------------------------------------------------|
|--------------------------------2-------------------------2-----|
|----------------------------------------------------------------|

  |               |               |               |
|----------------------------------------------------------------|
|--------------------------------4-------------------4---0-------|
|2-------------------------2-------------------------------------|
|----------------------------------------------------------------|

  |               |               |               |
|----------------4---------------1-------------------------------|
|2-----------------------------------------------2---------------|
|----------------------------------------------------------------|
|----------------------------------------------------------------|

  |               |               |               |
|----------------------------------------------------------------|
|--------------------------------4-------------------------4-----|
|2-------------------------2-------------------------------------|
|----------------------------------------------------------------|

  |               |               |               |
|----------------------------------------------------------4-----|
|--------------------4-----0-----2-------------------------------|
|2---------------------------------------------------------------|
|----------------------------------------------------------------|

  |               |               |               |
|----------------------------------------------------------------|
|--------------------------------2-------------------------2-----|
|0---------------------------------------------------------------|
|----------------------------------------------------------------|

  |               |               |               |
|----------------6---------------2-------------------------------|
|4-----------------------------------------------4---------------|
|----------------------------------------------------------------|
|----------------------------------------------------------------|

  |               |               |               |
|----------------1---------------3---------------6---------------|
|4---------4-----------------------------------------------------|
|----------------------------------------------------------------|
|----------------------------------------------------------------|

  |               |               |               |
|----------------6-----------------------------------------------|
|4---------------------------------------------------4-----1-----|
|--------------------------------2-------------------------------|
|----------------------------------------------------------------|

  |               |               |               |
|--------------------------4-----9-------------------------4-----|
|2---------------------------------------------------------------|
|----------------------------------------------------------------|
|----------------------------------------------------------------|

  |               |               |               |
|--------------------------4-----9---------------4---------------|
|2---------------------------------------------------------------|
|----------------------------------------------------------------|
|----------------------------------------------------------------|

  |               |               |               |
|1---------1-----3---------------4---------------8---------------|
|----------------------------------------------------------------|
|----------------------------------------------------------------|
|----------------------------------------------------------------|

  |               |               |               |
|--------------------------------1-------------------6---1-------|
|----------------------------------------------------------------|
|4---------------------------------------------------------------|
|----------------------------------------------------------------|

  |               |               |               |
|--------------------------6-----1-------------------------8-----|
|4---------------------------------------------------------------|
|----------------------------------------------------------------|
|----------------------------------------------------------------|

  |               |               |               |
|--------------------------------1---------------8---4---1-------|
|----------------------------------------------------------------|
|0---------------------------------------------------------------|
|----------------------------------------------------------------|

  |               |               |               |
|--------------------------------1-------------------------8-----|
|4---------------------------------------------------------------|
|----------------------------------------------------------------|
|----------------------------------------------------------------|

  |               |               |               |
|--------------------------------1-------------------------8-----|
|--------------------------2-------------------------------------|
|0---------------------------------------------------------------|
|----------------------------------------------------------------|

  |               |               |               |
|--------------------------------6-------------------------6-----|
|4---------------------------------------------------------------|
|----------------------------------------------------------------|
|----------------------------------------------------------------|

  |               |               |               |
|----------------------------------------------------------------|
|--------------------------------4-------------------------------|
|2---------------------------------------------------------------|
|----------------------------------------------------------------|

  |               |               |               |
|----------------4---1---------------------------1---------------|
|2-----------------------2---------------------------------------|
|--------------------------------4-------------------------------|
|----------------------------------------------------------------|

  |               |               |               |
|----------------------------------------------------------------|
|4-------------------------4-----------------------------1-------|
|--------------------------------2-------------------4-----------|
|----------------------------------------------------------------|

  |               |               |               |
|--------------------------------4-------------------------------|
|2---------------------------------------------------------------|
|----------------------------------------------------------------|
|----------------------------------------------------------------|

  |               |               |               |
|9-------------------------------4-----------------------4-------|
|----------------------------------------------------------------|
|----------------------------------------------------------------|
|----------------------------------------------------------------|

  |               |               |               |
|----------------------------------------------------------0-----|
|--------------------------------2-------------------4-----------|
|0---------------------------------------------------------------|
|----------------------------------------------------------------|

  |               |               |               |
|2---------2-----0-----------------------------------------------|
|--------------------------------2-------------------------------|
|------------------------------------------------4---------------|
|----------------------------------------------------------------|

  |               |               |               |
|--------------------------------4-------------------6-----8-----|
|2---------------------------------------------------------------|
|----------------------------------------------------------------|
|----------------------------------------------------------------|

  |               |               |               |
|9---------9-----8---------------4---------------1---------------|
|----------------------------------------------------------------|
|----------------------------------------------------------------|
|----------------------------------------------------------------|

  |               |               |               |
|1-------------------------------8-------------------------8-----|
|----------------------------------------------------------------|
|----------------------------------------------------------------|
|----------------------------------------------------------------|

  |               |               |               |
|----------------1-----------------------------------------1-----|
|--------------------3-------------------------------------------|
|4-----------------------4-------4-------------------------------|
|----------------------------------------------------------------|

  |               |               |               |
|--------------------------------6-------------------8-----9-----|
|4---------------------------------------------------------------|
|----------------------------------------------------------------|
|----------------------------------------------------------------|

  |               |               |               |
|11--------11----9---------------6---------------2---------------|
|----------------------------------------------------------------|
|----------------------------------------------------------------|
|----------------------------------------------------------------|

  |               |               |               |
|----------------------------------------------------2-----------|
|--------------------------------2-----------------------2-------|
|0---------------------------------------------------------------|
|----------------------------------------------------------------|

  |               |               |               |
|--------------------------------2-------------------------------|
|0---------------------------------------------------------------|
|----------------------------------------------------------------|
|----------------------------------------------------------------|

  |               |               |               |
|1---------1-----3---------------4---------------8---------------|
|----------------------------------------------------------------|
|----------------------------------------------------------------|
|----------------------------------------------------------------|

  |               |               |               |
|0-------------------------0-----6-------------------------6-----|
|----------------------------------------------------------------|
|----------------------------------------------------------------|
|----------------------------------------------------------------|

  |               |               |               |
|----------------------------------------------------------1-----|
|4-------------------------4-------------------------------------|
|--------------------------------4-------------------------------|
|----------------------------------------------------------------|

  |               |               |               |
|----------------6---2-------------------------------------------|
|4-----------------------4-----------------------4---------------|
|--------------------------------2-------------------------------|
|----------------------------------------------------------------|

  |               |               |               |
|----------------------------------------------------------------|
|--------------------------------0---------------4---------------|
|2---------2-----4-----------------------------------------------|
|----------------------------------------------------------------|

  |               |               |               |
|--------------------------------4-------------------------4-----|
|2-------------------------2-------------------------------------|
|----------------------------------------------------------------|
|----------------------------------------------------------------|

  |               |               |               |
|----------------------------------------------------------------|
|--------------------------------4-------------------------4-----|
|2---------------------------------------------------------------|
|----------------------------------------------------------------|

  |               |               |               |
|----------------------------------------------------------------|
|--------------------------------2-------------------------2-----|
|2---------------------------------------------------------------|
|----------------------------------------------------------------|

  |               |               |               |
|----------------------------------------------------------------|
|----------------2-----------------------------------------------|
|0-------------------------------4---------------0---------------|
|----------------------------------------------------------------|

  |               |               |               |
|--------------------------------6-------------------11--6-------|
|4---------------------------------------------------------------|
|----------------------------------------------------------------|
|----------------------------------------------------------------|

  |               |               |               |
|--------------------------------6-------------------------6-----|
|4-------------------------4-------------------------------------|
|----------------------------------------------------------------|
|----------------------------------------------------------------|

  |               |               |               |
|----------------6---2-------------------------------------------|
|4-----------------------4-------------------------------1-------|
|--------------------------------2-------------------4-----------|
|----------------------------------------------------------------|

  |               |               |               |
|--------------------------------4-------------------------------|
|2---------------------------------------------------------------|
|----------------------------------------------------------------|
|----------------------------------------------------------------|

  |               |               |               |
|9-------------------------------4-----------------------4-------|
|----------------------------------------------------------------|
|----------------------------------------------------------------|
|----------------------------------------------------------------|

  |               |               |               |
|1-------------------------------8-------------------13--8-------|
|----------------------------------------------------------------|
|----------------------------------------------------------------|
|----------------------------------------------------------------|

  |               |               |               |
|--------------------------------1-------------------1-----------|
|--------------------------------------------------------3-------|
|4-------------------------4-------------------------------------|
|----------------------------------------------------------------|

  |               |               |               |
|--------------------------6-----1-------------------------1-----|
|4---------------------------------------------------------------|
|----------------------------------------------------------------|
|----------------------------------------------------------------|

  |               |               |               |
|--------------------------------1-------------------------8-----|
|----------------2-----------------------------------------------|
|0---------------------------------------------------------------|
|----------------------------------------------------------------|

  |               |               |               |
|----------------6---2-----------1-------------------------1-----|
|4-----------------------4---------------------------------------|
|----------------------------------------------------------------|
|----------------------------------------------------------------|

  |               |               |               |
|2-------------------------------1-------------------------------|
|----------------2-----------------------------------------------|
|----------------------------------------------------------------|
|----------------------------------------------------------------|

  |               |               |               |
|----------------1---------------2---------------6---------------|
|4---------4-----------------------------------------------------|
|----------------------------------------------------------------|
|----------------------------------------------------------------|

  |               |               |               |
|----------------------------------------------------------------|
|--------------------------------4-------------------------4-----|
|2---------------------------------------------------------------|
|----------------------------------------------------------------|

  |               |               |               |
|--------------------------4-------------------------------1-----|
|2---------------------------------------------------------------|
|--------------------------------4-------------------------------|
|----------------------------------------------------------------|

  |               |               |               |
|----------------6---------------4-------------------------------|
|4-----------------------------------------------4---------------|
|----------------------------------------------------------------|
|----------------------------------------------------------------|

  |               |               |               |
|--------------------------------4-------------------------4-----|
|2---------------------------------------------------------------|
|----------------------------------------------------------------|
|----------------------------------------------------------------|

  |               |               |               |
|----------------4---------9-------------------------------------|
|2---------------------------------------------------------------|
|----------------------------------------------------------------|
|----------------------------------------------------------------|




Created with TablEdit http://www.tabledit.com/

     
Добавлено: 25.11.2013
Другие материалы по этой песне:
  • Аккорды и текст

Страница создана 25.11.2013
http://primanota.ru/frank-sinatra/on-a-clear-day-chords.htm
Привет, Гость.
Предлагаем пройти революционный курс по гитаре.
Подарок от PrimaNota.Ru, забирай!