PrimaNota.ru - самый крупный в мире бесплатный архив песенных текстов, аккордов, табулатур и нот


Frank Sinatra - New York - бас-таба, видео

Регистрация Запомнить меня
Войти через:  Facebook Google Twitter Vk Yandex Mail.ru

Frank Sinatra - New York - бас-таба, видео

Печатать
Просмотров: 176
Уроки эстрадного вокала в Санкт-Петербурге
new york_frank sinatra

TablEdited by Jan Bjorklund    jani_bjorklund@yahoo.se>
You are welcome to request for tabs!
Fingering and positions as suggested by TablEdit, please use common sense.


TablEdited by Jan Bjorklund
Tuning : E A D G 	Time Signature: 4/4

  |               |               |               |
|----------------------------------------------------------------|
|------------0---------------------------------------------------|
|----------------------------------------------0-----------------|
|----------------------------------------------------------------|

  |               |               |               |
|----------------------------------------------------------------|
|------------------0---------------------------------------------|
|----------------------------------------------------0-----------|
|----------------------------------------------------------------|

  |               |               |               |
|----------------------------------------------------------------|
|------------------------2---------------------------------------|
|----------------------------------------------------------0-----|
|----------------------------------------------------------------|

  |               |               |               |
|----------------------------------------------------------------|
|------------------------------2---------------------------------|
|----------------------------------------------------------------|
|----------------------------------------------------------------|

  |               |               |               |
|----------------------------------------------------------------|
|------------------------------------0---------------------------|
|--0-------------------------------------------------------------|
|----------------------------------------------------------------|

  |               |               |               |
|----------------------------------------------------------------|
|------------------------------------------0---------------------|
|--------0-------------------------------------------------------|
|----------------------------------------------------------------|

  |               |               |               |
|----------------------------------------------------------------|
|------------------------------------------------2---------------|
|--------------0-------------------------------------------------|
|----------------------------------------------------------------|

  |               |               |               |
|----------------------------------------------------------------|
|------------------------------------------------------2---------|
|--------------------0-------------------------------------------|
|----------------------------------------------------------------|

  |               |               |               |
|----------------------------------------------------------------|
|------------------------------------------------------------0---|
|----------------------------------------------------------------|
|----------------------------------------------------------------|

  |               |               |               |
|----------------------------------------------------------------|
|----------------------------------------------------------------|
|--------------------------------0-------------------------------|
|----------------------------------------------------------------|

  |               |               |               |
|----------------------------------------------------------------|
|--0-------------------------------------------------------------|
|--------------------------------------0-------------------------|
|----------------------------------------------------------------|

  |               |               |               |
|----------------------------------------------------------------|
|--------2-------------------------------------------------------|
|--------------------------------------------0-------------------|
|----------------------------------------------------------------|

  |               |               |               |
|----------------------------------------------------------------|
|--------------2-------------------------------------------------|
|--------------------------------0-----------------2-------------|
|----------------------------------------------------------------|

  |               |               |               |
|----------------------------------------------------------------|
|--------------------0-------------------------------------------|
|----4---------------------------------------------------0-------|
|----------------------------------------------------------------|

  |               |               |               |
|--------------------------------------------------------------2-|
|----------------------------0-----------------------------------|
|----------------------------------------------------------------|
|----------------------------------------------------------------|

  |               |               |               |
|----------------------------------------------------------------|
|----------------------------------2-----------------------------|
|----------------0-----------------------------------------------|
|----------------------------------------------------------------|

  |               |               |               |
|----------------------------------------------------------------|
|----------------------------------------2-----------------------|
|----0-----------------------------------------------------------|
|----------------------------------------------------------------|

  |               |               |               |
|----------2-----------------------------------------------------|
|----------------------------------------------0-----------------|
|----------------------------0-----------------------------------|
|----------------------------------------------------------------|

  |               |               |               |
|----------------------------------------------------------------|
|----------------------------------------------------0-----------|
|----------------0-----------------------------------------------|
|----------------------------------------------------------------|

  |               |               |               |
|----------------------2-----------------------------------------|
|----------------------------------------------------------2-----|
|----------------------------------------------------------------|
|----------------------------------------------------------------|

  |               |               |               |
|----------------------------------------------------------------|
|----------------------------------------------------------------|
|----------------------------0-----------------------------------|
|----------------------------------------------------------------|

  |               |               |               |
|----------------------------------------------------------------|
|2-----------2---------------------------------------------------|
|------------------0---------------2-----------------4-----------|
|----------------------------------------------------------------|

  |               |               |               |
|----------------------------------------------------------------|
|------0---------------------------------------------------------|
|----------------------------------------0-----------------------|
|----------------------------------------------------------------|

  |               |               |               |
|------------------------------------------------2---------------|
|------------0-----------------0---------------------------------|
|----------------------------------------------------------------|
|----------------------------------------------------------------|

  |               |               |               |
|------------------------------------2---------------------------|
|------------------0-----------------------------------4---------|
|0---------------------------------------------------------------|
|----------------------------------------------------------------|

  |               |               |               |
|----------------------------------------------------------------|
|------2-----------------0-----------------0-----------------2---|
|----------------------------------------------------------------|
|----------------------------------------------------------------|

  |               |               |               |
|------------------------------0-----------------0---------------|
|------------4---------------------------------------------------|
|----------------------------------------------------------------|
|----------------------------------------------------------------|

  |               |               |               |
|------------------------------------0-----------------3---------|
|--0---------------0-----------------------------0---------------|
|----------------------------------------------------------------|
|----------------------------------------------------------------|

  |               |               |               |
|--------2---------------0-----------------2-----------------2---|
|----------------------------------------------------------------|
|----------------------------------------------------------------|
|----------------------------------------------------------------|

  |               |               |               |
|----------------------------------------------------------------|
|------------------------------------------------0---------------|
|--------------0-----------------0-------------------------------|
|----------------------------------------------------------------|

  |               |               |               |
|--2-------------------------------------------------------------|
|--------------------4-----------------0---------------4---------|
|----------------------------------------------------------------|
|----------------------------------------------------------------|

  |               |               |               |
|----------------------------------------------------------------|
|--------4-----------------4-----------------4-------------------|
|------------------------------------------------------------2---|
|----------------------------------------------------------------|

  |               |               |               |
|--------------------------------4-------------------------------|
|--------------4-------------------------------------------------|
|--------------------------------------------------2-----------2-|
|----------------------------------------------------------------|

  |               |               |               |
|--------------------4-----------------0-------------------------|
|--2-----------------------------------------------------2-------|
|----------------------------------------------------------------|
|----------------------------------------------------------------|

  |               |               |               |
|--------------------------------------------2-------------------|
|----------------------------------------------------------------|
|--------------------0-----------------------------------------0-|
|----------------------------------------------------------------|

  |               |               |               |
|--------------------------------------------------2-------------|
|----------------0-----------------------------------------------|
|----------------------------------------------------------------|
|----------------------------------------------------------------|

  |               |               |               |
|--------------------------------------------------------2-------|
|----------------------0-----------------------------------------|
|----------------------------------------------------------------|
|----------------------------------------------------------------|

  |               |               |               |
|--------------------------------------------------------------4-|
|----------------------------2-----------------------------------|
|----------0-----------------------------------------------------|
|----------------------------------------------------------------|

  |               |               |               |
|----------------------------------------------------------------|
|----------------4-----------------2-----------2-----------------|
|--------------------------------------------------0-------------|
|----------------------------------------------------------------|

  |               |               |               |
|----------------------------------------------------------------|
|----------------------------------------0-----------------------|
|----2-----------------4-----------------------------------------|
|----------------------------------------------------------------|

  |               |               |               |
|----------------------------------------------------------------|
|----------------------------------------------0-----------0-----|
|----------0-----------------------------0-----------------------|
|----------------------------------------------------------------|

  |               |               |               |
|----------------------------------------------------------------|
|----------------------------------------------------------------|
|4---------------2-----------------1-----------------0-----------|
|----------------------------------------------------------------|

  |               |               |               |
|----------------------------------------------------------------|
|----------------------0-----------------------------------0-----|
|----------------------------------------0-----------------------|
|----------------------------------------------------------------|



Created with TablEdit http://www.tabledit.com/

     
Добавлено: 06.09.2013
Другие материалы по этой песне:
  • Аккорды и текст

Страница создана 18.08.2013
http://primanota.ru/frank-sinatra/new-york-chords.htm
Привет, Гость.
Предлагаем пройти революционный курс по гитаре.
Подарок от PrimaNota.Ru, забирай!