PrimaNota.ru - самый крупный в мире бесплатный архив песенных текстов, аккордов, табулатур и нот


Frank Sinatra - Luck Be A Lady Tonight - бас-таба, видео

Регистрация Запомнить меня
Войти через:  Facebook Google Twitter Vk Yandex Mail.ru

Frank Sinatra - Luck Be A Lady Tonight - бас-таба, видео

Печатать
Просмотров: 157
frank_sinatra_luck_be_a_lady_tonight.btab

Basstab by Jan Bjorklund, Finland  jani_bjorklund@yahoo.se>
You are welcome to request for basstabs!
Bienvenidos a pedirme transcripciones para el bajo!
Fingering and positions as suggested by TablEdit. 

TablEdited by Jan Bjorklund for Benjamin
Tuning : E A D G 	Time Signature: 4/4

 |       |       |       |        |       |       |       |        
|----------------6---------------|--------2-----------------------|
|--------6---------------6-------|0---------------4-------0-------|
|4-------------------------------|--------------------------------|
|--------------------------------|--------------------------------|

 |       |       |       |        |       |       |       |        
|----------------6-------6---6---|7---------------7---------------|
|--------6-----------------------|--------------------------------|
|4-------------------------------|--------5---------------5-------|
|--------------------------------|--------------------------------|

 |       |       |       |        |       |       |       |        
|----------------6---------------|----------------7---------------|
|--------6-----------6-----------|--------7-----------7-----------|
|4-----------------------4-------|5-----------------------5-------|
|--------------------------------|--------------------------------|

 |       |       |       |        |       |       |       |        
|----------------6---------------|1---------------1---------------|
|--------6-----------6-----------|------------------------0-------|
|4-----------------------4-------|--------------------------------|
|--------------------------------|--------4-----------------------|

 |       |       |       |        |       |       |       |        
|------------------------6-------|7-------------------------------|
|--------3-------6---------------|--------7-------4---------------|
|4-------------------------------|------------------------5-------|
|--------------------------------|--------------------------------|

 |       |       |       |        |       |       |       |        
|----------------1-------3---1---|----------------2---------------|
|--------3-----------------------|0-------4---------------0-------|
|4-------------------------------|--------------------------------|
|--------------------------------|--------------------------------|

 |       |       |       |        |       |       |       |        
|------------------------6-------|7---7-----------7-------5-------|
|--------3-------6---------------|--------------------------------|
|4-------------------------------|--------5-----------------------|
|--------------------------------|--------------------------------|

 |       |       |       |        |       |       |       |        
|6-------------------------------|--------2-----------------------|
|--------6-------3-------6-------|4---------------0---------------|
|--------------------------------|------------------------3-------|
|--------------------------------|--------------------------------|

 |       |       |       |        |       |       |       |        
|------------------------6-------|--------9-------11--11----------|
|--------3-------6---------------|12------------------------------|
|4-------------------------------|--------------------------------|
|--------------------------------|------------------------10------|

 |       |       |       |        |       |       |       |        
|----------------1---------1-4---|4-------4-----------------------|
|--------3---------------3-------|2-------2---------------2-------|
|4-------------------------------|--------------------------------|
|--------------------------------|----------------4---------------|

 |       |       |       |        |       |       |       |        
|--------3-----------------------|--------2-----------------------|
|1---------------4-------1---1---|0---------------4-------0-------|
|--------------------------------|--------------------------------|
|--------------------------------|--------------------------------|

 |       |       |       |        |       |       |       |        
|----------------1---------------|----------------2---------------|
|--------3-----------------------|0-------4---------------0-------|
|4-----------------------4-------|--------------------------------|
|--------------------------------|--------------------------------|

 |       |       |       |        |       |       |       |        
|------------------------6-------|------------------------6-------|
|--------3-------6---------------|7---------------7---------------|
|4-------------------------------|--------------------------------|
|--------------------------------|--------5-----------------------|

 |       |       |       |        |       |       |       |        
|7---7-----------7---------------|3---------------0---------------|
|------------------------7-------|--------1---------------1-------|
|--------5-----------------------|--------------------------------|
|--------------------------------|--------------------------------|

 |       |       |       |        |       |       |       |        
|--------2-----------------------|--------5-------3-------2-------|
|0---------------4-------0-------|--------------------------------|
|--------------------------------|6-------------------------------|
|--------------------------------|--------------------------------|

 |       |       |       |        |       |       |       |        
|----------------2-------5-------|3-------0-----------------------|
|--------4-----------------------|----------------1---------------|
|5-------------------------------|------------------------0-------|
|--------------------------------|--------------------------------|

 |       |       |       |        |       |       |       |        
|----------------7-------9-------|--------12----------------------|
|--------7-----------------------|13----------------------13--13--|
|--------------------------------|----------------13--------------|
|10------------------------------|--------------------------------|

 |       |       |       |        |       |       |       |        
|--------11----------------------|------------------------10------|
|12--------------12--------------|--------9-----10----------------|
|--------------------12--9-------|8-------------------------------|
|--------------------------------|--------------------------------|

 |       |       |       |        |       |       |       |        
|--------4-----------------------|--------5-------4---------------|
|2---------------5-------2-------|--------------------------------|
|--------------------------------|3-----------------------2-------|
|--------------------------------|--------------------------------|

 |       |       |       |        |       |       |       |        
|------------------------4-------|3---------------3---------------|
|2-------4-------5---------------|--------1-----------------------|
|--------------------------------|------------------------0-------|
|--------------------------------|--------------------------------|

 |       |       |       |        |       |       |       |        
|--------2---------------2-------|--------2---------------2-------|
|0-------------------------------|0-------------------------------|
|----------------0---------------|----------------0---------------|
|--------------------------------|--------------------------------|

 |       |       |       |        |       |       |       |        
|----------------2---------------|--------2-------2---------------|
|2-------2---------------2-------|0-------------------------------|
|--------------------------------|--------------------------------|
|--------------------------------|--------------------------------|

 |       |       |       |        |       |       |       |        
|----------2-3-------------------|--------------------------2-3---|
|1---------------1-----------1---|--------------------------------|
|--------------------------------|1---------------1---------------|
|--------------------------------|--------------------------------|

 |       |       |       |        |       |       |       |        
|--------------------------------|----------1-2---3---------------|
|1-----------1-------------------|1-------------------------------|
|----------------1---------------|------------------------1-------|
|--------------------------------|--------------------------------|

 |       |       |       |        |       |       |       |        
|----------------3---------------|------------3---------------2---|
|--------------------------------|----------------1---------------|
|1-----------------------1-------|1-------------------------------|
|--------------------------------|--------------------------------|

 |       |       |       |        |       |       |       |        
|--------------------------------|----------4-5-------------------|
|3---------------------------4---|3---------------3-------3-------|
|------------4---3---------------|--------------------------------|
|--------------------------------|----------------------------5---|

 |       |       |       |        |       |       |       |        
|----------------3---------------|----------------3---------------|
|--------------------------------|----------------------------3---|
|1-------------------------------|1-------------------------------|
|--------------------------------|--------------------------------|

 |       |       |       |        |       |       |       |        
|----------------3---------------|----------------0---------------|
|----------------------------3---|--------------------------------|
|1-------------------------------|1-----------------------3-------|
|--------------------------------|--------------------------------|

 |       |       |       |        |       |       |       |        
|------------1-------------------|----------------------------0---|
|3---------------3---------------|--------------------------------|
|----------------------------4---|3---------------3---------------|
|--------------------------------|--------------------------------|

 |       |       |       |        |       |       |       |        
|------------------------3-------|1---------------1---1-----------|
|1-------3-------4---------------|--------1-----------------------|
|--------------------------------|--------------------------------|
|--------------------------------|------------------------4-------|

 |       |       |       |        |       |       |       |        
|------------------------6-------|7---7-----------4---------------|
|--------3-------6---------------|------------------------7-------|
|4-------------------------------|--------5-----------------------|
|--------------------------------|--------------------------------|

 |       |       |       |        |       |       |       |        
|------------------------1-------|2-------------------------------|
|0---------------3---------------|--------4-------0---------------|
|--------4-----------------------|------------------------3-------|
|--------------------------------|--------------------------------|

 |       |       |       |        |       |       |       |        
|----------------1-----------1---|----------------2---------------|
|--------3---------------3-------|0-------4---------------0-------|
|4-------------------------------|--------------------------------|
|--------------------------------|--------------------------------|

 |       |       |       |        |       |       |       |        
|------------------------6-------|7---7-----------7---------------|
|--------3-------6---------------|--------------------------------|
|4-------------------------------|--------5---------------5-------|
|--------------------------------|--------------------------------|

 |       |       |       |        |       |       |       |        
|--------1---------------2-------|--------2-----------2-----------|
|----------------3---------------|0---------------4-------0-------|
|4-------------------------------|--------------------------------|
|--------------------------------|--------------------------------|

 |       |       |       |        |       |       |       |        
|------------------------6-------|----------------11------11------|
|--------3-------6---------------|12------------------------------|
|4-------------------------------|--------------------------------|
|--------------------------------|--------10------------------10--|

 |       |       |       |        |       |       |       |        
|----------------1-----------2---|--------2-----------------------|
|--------3---------------3-------|0---------------4---------------|
|4-------------------------------|--------------------------------|
|--------------------------------|------------------------4-------|

 |       |       |       |        |       |       |       |        
|----------------1---------------|--------2-----------------------|
|--------3-----------------------|0---------------4---------------|
|4-----------------------4-------|--------------------------------|
|--------------------------------|------------------------4-------|

 |       |       |       |        |       |       |       |        
|----------------1---------------|--------7-----------------------|
|--------3---------------3-------|--------------------------------|
|4-------------------------------|5-----------------------5-------|
|--------------------------------|----------------5---------------|

 |       |       |       |        |       |       |       |        
|----------------6---------------|----------------7---------------|
|--------6-----------6-----------|--------7-----------7-----------|
|4-----------------------4-------|5-----------------------5-------|
|--------------------------------|--------------------------------|

 |       |       |       |        |       |       |       |        
|----------------6---------------|----------------7---------------|
|--------6---------------6-------|--------7-----------------------|
|4-------------------------------|5-----------------------5-------|
|--------------------------------|--------------------------------|

 |       |       |       |        |       |       |       |        
|----------------6-------4-------|--------1-----------------------|
|--------6---------------------7-|----------------4-----0---------|
|4-------------------------------|--------------------------------|
|--------------------------------|--------------------------------|

 |       |       |       |        |       |       |       |        
|----------------1---------------|--------2-----------------------|
|--------3-----------------------|0---------------4-------0-------|
|4-----------------------4-------|--------------------------------|
|--------------------------------|--------------------------------|

 |       |       |       |        |       |       |       |        
|----------------3-------------3-|4---------------4---------------|
|1-------4---------------4-------|--------------------------------|
|--------------------------------|--------2---------------2-------|
|--------------------------------|--------------------------------|

 |       |       |       |        |       |       |       |        
|----------------------------1---|------------1-------------------|
|--------3-------2-----2---------|1-------1-------0-------0-------|
|4-------------------------------|--------------------------------|
|--------------------------------|--------------------------------|

 |       |       |       |        |       |       |       |        
|--------------------------------|------------------------2-------|
|--------------------------------|--------------------------------|
|4-------3-------2---1-------0---|--------------------------------|
|--------------------------------|--------------------------------|

 |       |       |       |        |       |       |       |        
|------------------------2-------|------------------------2-------|
|0-------------------------------|0-------------------------------|
|--------------------------------|--------------------------------|
|--------------------------------|--------------------------------|

 |       |       |       |        |       |       |       |        
|------------------------2-------|------------------------2-------|
|0-------------------------------|0-------------------------------|
|--------------------------------|--------------------------------|
|--------------------------------|--------------------------------|

 |       |       |       |        |       |       |       |        
|------------------------2-------|------------------------2-------|
|0-------------------------------|0-------------------------------|
|--------------------------------|--------------------------------|
|--------------------------------|--------------------------------|

 |       |       |       |        |       |       |       |        
|------------------------2-------|----------------------------2---|
|0-------------------------------|0-------------------------------|
|--------------------------------|--------------------------------|
|--------------------------------|--------------------------------|

 |       |       |       |        |       |       |       |        
|------------------------2-------|--------------------2-----------|
|0-------0-----------------------|0---------------0-------0-------|
|----------------0---------------|--------0-----------------------|
|--------------------------------|--------------------------------|

 |       |       |       |        |       |       |       |        
|0---0-----------------0---------|--------5-----------------------|
|--------------0-------------0---|----------------5---------------|
|--------2-----------------------|3-----------------------3-------|
|--------------------------------|--------------------------------|

 |       |       |       |        |       |       |       |        
|--------2-----------------------|--------3-----------------------|
|0---------------4-------0-------|1---------------1-------1-------|
|--------------------------------|--------------------------------|
|--------------------------------|--------------------------------|

 |       |       |       |        |       |       |       |        
|--------2-------------2---------|--------2---------------2-------|
|0-------------------------------|0-------------------------------|
|----------------0---------------|----------------0---------------|
|--------------------------------|--------------------------------|

 |       |       |       |        |       |       |       |        
|--------------------------------|--------2-----------------------|
|2-------2-----------------------|0-------------------------------|
|----------------0-------0-------|------------1-------------------|
|--------------------------------|--------------------------------|

 |       |       |       |        |       |       |       |        
|--------------------------1-2---|----------------------------7---|
|1---------------1---------------|8-------------------------------|
|--------------------------------|--------------------------------|
|--------------------------------|----------------6---------------|

 |       |       |       |        |       |       |       |        
|--------10------12--------------|------------3-------------1-2---|
|13--------------------------13--|----------------1---------------|
|--------------------------------|1-------------------------------|
|--------------------------------|--------------------------------|

 |       |       |       |        |       |       |       |        
|3---------------------------2---|3-----------3-------------------|
|--------------------------------|----------------1-----------4---|
|----------------1---------------|--------------------------------|
|--------------------------------|--------------------------------|

 |       |       |       |        |       |       |       |        
|----------------5---------------|--------5-------2---------------|
|3-----------3-------------------|3-----------------------3-------|
|------------------------3-------|--------------------------------|
|--------------------------------|----------------------------5---|

 |       |       |       |        |       |       |       |        
|----------------3---------------|----------------3-----------3---|
|--------------------------------|--------------------------------|
|1-------------------------------|1-------------------------------|
|--------------------------------|--------------------------------|

 |       |       |       |        |       |       |       |        
|----------------3-----------3---|--------------------------------|
|--------------------------------|--------------------------------|
|1-------------------------------|1---------------3---------------|
|--------------------------------|--------------------------------|

 |       |       |       |        |       |       |       |        
|------------1-------------------|----------------------------3---|
|3---------------3---------------|--------------------------3-----|
|----------------------------4---|3---------------3---------------|
|--------------------------------|--------------------------------|

 |       |       |       |        |       |       |       |        
|------------------------3-------|1---1-----------1---1-----------|
|1-------3-------4---------------|--------1---------------0-------|
|--------------------------------|--------------------------------|
|--------------------------------|--------------------------------|

 |       |       |       |        |       |       |       |        
|------------------------6-------|7---------------7-------7-------|
|--------3-------6---------------|--------------------------------|
|4-------------------------------|--------5-----------------------|
|--------------------------------|--------------------------------|

 |       |       |       |        |       |       |       |        
|6---6---------------------------|7---7-----------7-------7-------|
|--------6-------3---------------|--------------------------------|
|--------------------------------|--------5-----------------------|
|------------------------4-------|--------------------------------|

 |       |       |       |        |       |       |       |        
|6-------------------------------|--------2-----------------------|
|--------6-------3-------6-------|0---------------4-------0-------|
|--------------------------------|--------------------------------|
|--------------------------------|--------------------------------|

 |       |       |       |        |       |       |       |        
|--------------------------------|--------------------------------|
|--------------------------------|----------------0-----------0---|
|4-------4-------1-------0-------|--------0-----------------------|
|--------------------------------|4-----------------------4-------|

 |       |       |       |        |       |       |       |        
|----------------1---------------|--------3---------------3---3---|
|--------3---------------3-------|--------------------------------|
|4---------------------------4---|1---------------1---------------|
|--------------------------------|--------------------------------|

 |       |       |       |        |       |       |       |        
|------3-------------------------|--------3---------------3---3---|
|1---------------4-------1-------|--------------------------------|
|--------------------------------|1---------------1---------------|
|--------------------------------|--------------------------------|

 |       |       |       |        |       |       |       |        
|----------------3-------3-------|--------3-------1---------------|
|1-------1-----------------------|1-----------------------3-------|
|--------------------------------|--------------------------------|
|--------------------------------|--------------------------------|

 |       |       |       |        |       |       |       |        
|------------------------3-------|8---------------10------10------|
|1-------3-------4---------------|--------8-----------------------|
|--------------------------------|--------------------------------|
|--------------------------------|--------------------------------|

 |       |       |       |        |       |       |       |        
|9-------------------------------|--------------------------------|
|--------9---------------9-------|2-------0-----------------------|
|----------------10--------------|----------------2---------------|
|--------------------------------|------------------------3-------|

 |       |       |       |        |       |       |       |        
|--------------------------------|------------------------4-------|
|--------------------------------|2-------------------5-------1---|
|------------------------2-------|--------5-------2---------------|
|0-------0-------0---------------|--------------------------------|

 |       |       |       |        |       |       |       |        
|--------------------------------|--------------------------------|
|--------------------------------|------------------------0---1---|
|--------------------------------|--------------------------------|
|--------------------------------|--------------------------------|

 |       |       |       |        |       |       |       |        
|--------------------------------|--------------------------------|
|----1---1-------1---1-------1---|--------------------------------|
|--------------------------------|--------------------------------|
|--------------------------------|4-------------------------------|

 |       |       |       |        |       |       |       |        
|----------------1---------------|----------------2---2-----------|
|--------------------------------|0-------0---------------0-------|
|----4-------------------4-------|--------------------------------|
|--------------------------------|--------------------------------|

 |       |       |       |        |       |       |       |        
|----------------1---------------|----------------2---------------|
|--------3---------------3-------|0-------0---------------0-------|
|4-------------------------------|--------------------------------|
|--------------------------------|--------------------------------|

 |       |       |       |        |       |       |       |        
|------------------------1-------|--------4-----------------------|
|----------------3---------------|----------------4---------------|
|4-------4-----------------------|5-----------------------5-------|
|--------------------------------|--------------------------------|

 |       |       |       |        |       |       |       |        
|----------------------------5---|6-------------------------------|
|--------------------------------|--------------------------------|
|4-------5-----------------------|----4---------------------------|
|--------------------------------|--------------------------------|


Created with TablEdit http://www.tabledit.com/
     
Добавлено: 09.11.2013
Другие материалы по этой песне:
  • Аккорды и текст

Страница создана 09.11.2013
http://primanota.ru/frank-sinatra/luck-be-a-lady-tonight-chords.htm
Привет, Гость.
Предлагаем пройти революционный курс по гитаре.
Подарок от PrimaNota.Ru, забирай!