PrimaNota.ru - самый крупный в мире бесплатный архив песенных текстов, аккордов, табулатур и нот


Frank Sinatra - Cest Magnifique - бас-таба, видео

Регистрация Запомнить меня
Войти через:  Facebook Google Twitter Vk Yandex Mail.ru

Frank Sinatra - Cest Magnifique - бас-таба, видео

Печатать
Просмотров: 128
ces't magnifique_frank sinatra

TablEdited by Jan Bjorklund    jani_bjorklund@yahoo.se>
You are welcome to request for tabs!
Fingering and positions as suggested by TablEdit, please use common sense.


TablEdited by Jan Bjorklund
Tuning : E A D G 	Time Signature: 4/4

  |               |               |               |
|0---------------------------------------------------------------|
|--------------------------------0---------------------------0---|
|----------------------------------------------------------------|
|----------------------------------------------------------------|

  |               |               |               |
|0---------------------------------------------------------------|
|--------------------------------0-------------------------------|
|----------------------------------------------------------------|
|----------------------------3-----------------------------------|

  |               |               |               |
|0-------------------------------7-------------------------------|
|----------------------------------------------------------------|
|----------------------------------------------------------------|
|----------------------------------------------------------------|

  |               |               |               |
|12------------------------------7-------------------------------|
|----------------------------------------------------------------|
|----------------------------------------------------------------|
|----------------------------------------------------------------|

  |               |               |               |
|0---------------------------0-----------------------------------|
|--------------------------------0---------------------------0---|
|----------------------------------------------------------------|
|----------------------------------------------------------------|

  |               |               |               |
|--------------------------------4-------------------------------|
|2---------------------------------------------------------------|
|----------------------------------------------------------------|
|----------------------------------------------------------------|

  |               |               |               |
|----------------------------------------------------------------|
|--------------------------------2-------------------------------|
|0-----------------------------------------------------------0---|
|----------------------------------------------------------------|

  |               |               |               |
|----------------------------------------------------------------|
|0-------------------------------0---------------2---------------|
|----------------------------4-----------------------------------|
|------------------------------------------------------------0---|

  |               |               |               |
|----------------------------------------------------------------|
|--------------------------------2---------------------------2---|
|0---------------------------0-----------------------------------|
|----------------------------------------------------------------|

  |               |               |               |
|--------------------------------2-------------------------------|
|0---------------------------------------------------------------|
|----------------------------------------------------------------|
|----------------------------------------------------------------|

  |               |               |               |
|----------------------------------------------------------------|
|--------------------------------2---------------------------1---|
|0---------------------------------------------------------------|
|----------------------------------------------------------------|

  |               |               |               |
|--------------------------------2-------------------------------|
|0---------------------------------------------------------------|
|----------------------------------------------------------------|
|----------------------------------------------------------------|

  |               |               |               |
|----------------------------------------------------------------|
|--------------------------------2---------------------------1---|
|0---------------------------------------------------------------|
|----------------------------------------------------------------|

  |               |               |               |
|--------------------------2-----7---------2---------------------|
|0-----------------------------------------------0---------------|
|----------------------------------------------------------------|
|----------------------------------------------------------------|

  |               |               |               |
|0-----------0---7---------------1-------------------------------|
|----------------------------------------------------------------|
|----------------------------------------------------------------|
|----------------------------------------------------------------|

  |               |               |               |
|----------------------------------------------------------------|
|--------------------------------0---------------------------4---|
|0---------------------------4-----------------------------------|
|----------------------------------------------------------------|

  |               |               |               |
|0---------------1---------------2---------------3---------------|
|----------------------------------------------------------------|
|----------------------------------------------------------------|
|----------------------------------------------------------------|

  |               |               |               |
|4---------------5---------------6---------------7---------------|
|----------------------------------------------------------------|
|----------------------------------------------------------------|
|----------------------------------------------------------------|

  |               |               |               |
|0---------------1---------------2---------------3---------------|
|----------------------------------------------------------------|
|----------------------------------------------------------------|
|----------------------------------------------------------------|

  |               |               |               |
|4---------------5---------------6---------------7---------------|
|----------------------------------------------------------------|
|----------------------------------------------------------------|
|----------------------------------------------------------------|

  |               |               |               |
|------------------------------------------------2---------------|
|0-----------0---2---------------3---------------------------0---|
|----------------------------------------------------------------|
|----------------------------------------------------------------|

  |               |               |               |
|0---------------7---------------12--------------7---------------|
|----------------------------------------------------------------|
|----------------------------------------------------------4-----|
|----------------------------------------------------------------|

  |               |               |               |
|5---------------0-----------------------------------------------|
|--------------------------------2-------------------------------|
|----------------------------------------------------------------|
|------------3-------------------------------0---3---------------|

  |               |               |               |
|------------------------------------------------0---------------|
|----------------0---------------2-------------------------------|
|3---------------------------------------------------------------|
|------------3-------------------------------3---------------3---|

  |               |               |               |
|------------------------------------------------0---------------|
|----------------0---------------2-------------------------------|
|3---------------------------------------------------------------|
|----------------------------------------------------------------|

  |               |               |               |
|------------------------------------------------5---------------|
|----------------2---------------3-------------------------------|
|3-----------3---------------------------------------------------|
|----------------------------------------------------------------|

  |               |               |               |
|0-----------------------------------------------0---------------|
|----------------------------------------------------------------|
|----------------2---------------3-----------3-------------------|
|----------------------------------------------------------------|

  |               |               |               |
|----------------------------------------------------------------|
|----------------1---------------2---------------2---------------|
|2-----------2---------------------------------------------------|
|----------------------------------------------------------------|

  |               |               |               |
|--------------------------------2-------------------------------|
|----------------2-------------------------------2---------1-----|
|0---------------------------------------------------------------|
|----------------------------------------------------------------|

  |               |               |               |
|----------------2-----------------------------------------------|
|0-------------------------------4---------------0---------------|
|------------0-----------------------------------------------0---|
|----------------------------------------------------------------|

  |               |               |               |
|0---------------7---------------12--------------7---------------|
|----------------------------------------------------------------|
|----------------------------------------------------------1-----|
|----------------------------------------------------------------|

  |               |               |               |
|----------------------------------------------------------------|
|--------------------------------0---------------4---------------|
|0---------------3-----------------------------------------------|
|----------------------------------------------------------------|

  |               |               |               |
|12--------------4---------------5---------------6---------------|
|------------0-------------------------------0-------------------|
|----------------------------------------------------------------|
|----------------------------------------------------------------|

  |               |               |               |
|7---------------8---------------9---------------11--------------|
|------------0-------------------------------0-------------------|
|----------------------------------------------------------------|
|----------------------------------------------------------------|

  |               |               |               |
|0---------------1---------------2---------------3---------------|
|----------------------------------------------------------------|
|----------------------------------------------------------------|
|----------------------------------------------------------------|

  |               |               |               |
|4---------------5---------------6---------------7---------------|
|----------------------------------------------------------------|
|----------------------------------------------------------------|
|----------------------------------------------------------------|

  |               |               |               |
|0---------------7---------------4---------------0---------------|
|------------0-----------------------------------------------0---|
|----------------------------------------------------------------|
|----------------------------------------------------------------|

  |               |               |               |
|----------------------------------------------------------------|
|2-----------2---0-----------------------------------------------|
|--------------------------------3---------------2---------------|
|----------------------------------------------------------------|

  |               |               |               |
|----------------------------------------------------------------|
|----------------------------------------------------------------|
|0---------------2---------------3---------------3---------------|
|------------0-------------------------------0-------------------|

  |               |               |               |
|7-----------7---2-----------------------------------------------|
|--------------------------------0-----------0---2---------------|
|----------------------------------------------------------------|
|------------------------------------------------------------0---|

  |               |               |               |
|----------------------------------------------------------------|
|----------------------------------------------------------------|
|0---------------2---------------3---------------3---------------|
|----------------------------------------------------------------|

  |               |               |               |
|------------------------------------------------2---------------|
|0---------------2---------------4-------------------------------|
|------------0-------------------------------0---------------0---|
|----------------------------------------------------------------|

  |               |               |               |
|----------------------------------------------------------------|
|------------------------------------------------2---------------|
|0-----------0---2---------------3---------------------------0---|
|----------------------------------------------------------------|

  |               |               |               |
|----------------2-----------------------------------------------|
|0-------------------------------4---------------0---------------|
|----------------------------------------------------------------|
|----------------------------------------------------------------|

  |               |               |               |
|--------------------------------2-------------------------------|
|----------------2-------------------------------2---------1-----|
|0---------------------------------------------------------------|
|----------------------------------------------------------------|

  |               |               |               |
|----------------------------------------------------------------|
|0---------------2---------------3---------------4---------------|
|------------0-------------------------------0-------------------|
|----------------------------------------------------------------|

  |               |               |               |
|0---------------2---------------1---------------7---------------|
|----------------------------------------------------------------|
|----------------------------------------------------------------|
|----------3-----------------------------------------------------|

  |               |               |               |
|----------------------------------------------------------------|
|----------------2---------------0-----------0---0---------------|
|0---------------------------------------------------------------|
|----------------------------------------------------------------|

  |               |               |               |
|12--------------4---------------5---------------6---------------|
|------------0-------------------------------0-------------------|
|----------------------------------------------------------------|
|----------------------------------------------------------------|

  |               |               |               |
|7---------------8---------------9---------------11--------------|
|------------0-------------------------------0-------------------|
|----------------------------------------------------------------|
|----------------------------------------------------------------|

  |               |               |               |
|0---------------1---------------2---------------3---------------|
|----------------------------------------------------------------|
|----------------------------------------------------------------|
|----------------------------------------------------------------|

  |               |               |               |
|4---------------5---------------6---------------7---------------|
|----------------------------------------------------------------|
|----------------------------------------------------------------|
|----------------------------------------------------------------|

  |               |               |               |
|----------------2---------------7---------------2---------1-----|
|0---------------------------------------------------------------|
|----------------------------------------------------------------|
|----------------------------------------------------------------|

  |               |               |               |
|0---------------2---------------4---------------7---------------|
|------------0-------------------------------0---------------0---|
|----------------------------------------------------------------|
|----------------------------------------------------------------|

  |               |               |               |
|------------------------------------------------0---------------|
|----------------0---------------2-------------------------------|
|3---------------------------------------------------------------|
|----------------------------------------------------------------|

  |               |               |               |
|5---------------0-----------------------------------------------|
|--------------------------------2-------------------------------|
|------------------------------------------------3---------------|
|----------------------------------------------------------------|

  |               |               |               |
|----------------0---------------5---------------0---------------|
|----------------------------------------------------------------|
|3---------------------------------------------------------4-----|
|----------------------------------------------------------------|

  |               |               |               |
|----------------0-----------------------------------------------|
|--------------------------------3---------------3---------------|
|3-----------3---------------------------------------------------|
|----------------------------------------------------------------|

  |               |               |               |
|0---------------0---------------5---0---------------------------|
|----------------------------------------2-----------------------|
|------------------------------------------------3---------------|
|----------------------------------------------------------------|

  |               |               |               |
|4-----------4---------------------------------------------------|
|----------------4---------------2-------------------------------|
|----------------------------------------------------------------|
|------------------------------------------------4---------------|

  |               |               |               |
|----------------2-----------------------------------------------|
|--------------------------------2-------------------------------|
|0-----------------------------------------------4---------------|
|----------------------------------------------------------------|

  |               |               |               |
|----------------2---------------7---------------2---------1-----|
|0---------------------------------------------------------------|
|----------------------------------------------------------------|
|----------------------------------------------------------------|

  |               |               |               |
|0-----------0---2---------------4---------------7---------------|
|----------------------------------------------------------------|
|----------------------------------------------------------------|
|----------------------------------------------------------------|

  |               |               |               |
|--------------------------------7---------------2---------------|
|----------------------------------------------------------------|
|0---------------0-----------------------------------------------|
|----------------------------------------------------------------|

  |               |               |               |
|0-------------------------------7-------------------------------|
|----------------------------------------------------------------|
|----------------------------------------------------------------|
|----------------------------------------------------------------|

  |               |               |               |
|0-------------------------------7-------------------------------|
|----------------------------------------------------------------|
|----------------------------------------------------------------|
|----------------------------------------------------------3-----|

  |               |               |               |
|0-------------------------------7-------------------------------|
|----------------------------------------------------------------|
|----------------------------------------------------------------|
|----------------------------------------------------------------|

  |               |               |               |
|0-------------------------------7-------------------------------|
|----------------------------------------------------------------|
|----------------------------------------------------------------|
|--------------------------3-------------------------------------|

  |               |               |               |
|0---------------------------------------------------------------|
|--------------------------------0---------------------------3---|
|----------------------------------------------------------------|
|----------------------------------------------------------------|

  |               |               |               |
|--------------------------4-----9---------4---------------------|
|2-----------------------------------------------2---------------|
|----------------------------------------------------------------|
|----------------------------------------------------------------|

  |               |               |               |
|----------------------------------------------------------------|
|--------------------------------2---------------------------2---|
|0---------------------------0-----------------------------------|
|----------------------------------------------------------------|

  |               |               |               |
|----------------------------------------------------------------|
|0-------------------------------0-----------0---2---------------|
|----------------------------4-----------------------------------|
|----------------------------------------------------------------|

  |               |               |               |
|----------------------------------------------------------------|
|--------------------------------2-------------------------------|
|0---------------------------------------------------------------|
|----------------------------------------------------------------|

  |               |               |               |
|--------------------------------2-------------------------------|
|0-----------------------------------------------------------0---|
|----------------------------------------------------------------|
|----------------------------------------------------------------|

  |               |               |               |
|----------------------------------------------------------------|
|--------------------------------2-------------------------------|
|0-----------------------------------------------------------0---|
|----------------------------------------------------------------|

  |               |               |               |
|--------------------------2-----7---------2---------------------|
|0-----------------------------------------------0---------------|
|----------------------------------------------------------------|
|----------------------------------------------------------------|

  |               |               |               |
|----------------------------------------------------------------|
|--------------------------------2-------------------------------|
|0-----------------------------------------------------------0---|
|----------------------------------------------------------------|

  |               |               |               |
|--------------------------------2-------------------------------|
|0-----------------------------------------------------------0---|
|----------------------------------------------------------------|
|----------------------------------------------------------------|

  |               |               |               |
|0---------------------------2---1-------------------------------|
|----------------------------------------------------------------|
|----------------------------------------------------------------|
|----------------------------------------------------------------|

  |               |               |               |
|----------------------------------------------------------------|
|--------------------------------0-------------------------0-----|
|0---------------------------------------------------------------|
|----------------------------------------------------------------|

  |               |               |               |
|12--------------4---------------5---------------6---------------|
|------------0-------------------------------0-------------------|
|----------------------------------------------------------------|
|----------------------------------------------------------------|

  |               |               |               |
|7---------------8---------------9---------------11--------------|
|------------0-------------------------------0-------------------|
|----------------------------------------------------------------|
|----------------------------------------------------------------|

  |               |               |               |
|0---------------2---------------4---------------7---------------|
|----------------------------------------------------------------|
|----------------------------------------------------------------|
|----------------------------------------------------------------|

  |               |               |               |
|12--------------7---------------4---------------0---------------|
|----------------------------------------------------------------|
|----------------------------------------------------------------|
|----------------------------------------------------------------|

  |               |               |               |
|----------------------------------------------------------------|
|0---------------2---------------3---------------3---------------|
|----------------------------------------------------------------|
|----------------------------------------------------------------|

  |               |               |               |
|0---------------7---------------12--------------7---------------|
|----------------------------------------------------------------|
|----------------------------------------------------------4-----|
|----------------------------------------------------------------|

  |               |               |               |
|5---------------------------------------------------------------|
|----------------2---------------3---------------4---------------|
|----------------------------------------------------------------|
|------------3-------------------------------3-------------------|

  |               |               |               |
|0---------------1---------------2---------------4---------------|
|----------------------------------------------------------------|
|----------------------------------------------------------------|
|------------3-------------------------------3-------------------|

  |               |               |               |
|------------------------------------------------0---------------|
|----------------0---------------2-------------------------------|
|3---------------------------------------------------------------|
|------------3-------------------------------3---------------3---|

  |               |               |               |
|----------------------------------------------------------------|
|----------------4---------------3---------------3---------------|
|3---------3-----------------------------------------------------|
|----------------------------------------------------------------|

  |               |               |               |
|0-----------0---------------------------------------------------|
|----------------------------------------------------------------|
|----------------2---------------3-----------3---1---------------|
|----------------------------------------------------------------|

  |               |               |               |
|4---------------------------------------------------------------|
|----------------4---------------2-------------------------------|
|----------------------------------------------------------------|
|------------------------------------------------4---------------|

  |               |               |               |
|----------------------------------------------------------------|
|------------------------------------------------2---------------|
|0-----------0---2---------------4-------------------------------|
|----------------------------------------------------------------|

  |               |               |               |
|7-----------------------------------------------2---------------|
|----------------0---------------4-------------------------------|
|----------------------------------------------------------------|
|----------------------------------------------------------------|

  |               |               |               |
|0---------------7---------------4---------------0---------------|
|------------0-----------------------------------------------0---|
|----------------------------------------------------------------|
|----------------------------------------------------------------|

  |               |               |               |
|------------------------------------------------2---------------|
|--------------------------------0-------------------------------|
|0-----------0---0---------------------------0---------------0---|
|----------------------------------------------------------------|

  |               |               |               |
|0-----------0---4---------------5---------------6---------------|
|----------------------------------------------------------------|
|----------------------------------------------------------------|
|----------------------------------------------------------------|

  |               |               |               |
|7---------------------------0-----------------------------------|
|----------------0-----------------------------------------------|
|----------------------------------------------------------------|
|----------------------------------------------------------------|




Created with TablEdit http://www.tabledit.com/

     
Добавлено: 27.11.2013
Другие материалы по этой песне:
  • Аккорды и текст

Страница создана 31.10.2013
http://primanota.ru/frank-sinatra/cest-magnifique-chords.htm
Привет, Гость.
Предлагаем пройти революционный курс по гитаре.
Подарок от PrimaNota.Ru, забирай!