PrimaNota.ru - самый крупный в мире бесплатный архив песенных текстов, аккордов, табулатур и нот


Frank Sinatra - Bewitched - текст песни, бас-таба, видео

Регистрация Запомнить меня
Войти через:  Facebook Google Twitter Vk Yandex Mail.ru

Frank Sinatra - Bewitched - текст песни, бас-таба, видео

Печатать
Просмотров: 86
bewitched_frank sinatra

TablEdited by Jan Bjorklund    jani_bjorklund@yahoo.se>
You are welcome to request for tabs!
Fingering and positions as suggested by TablEdit, please use common sense.


TablEdited by Jan Bjorklund
Tuning : E A D G 	Time Signature: 4/4

  |               |               |               |
|----------------------------------------------------------------|
|----------------------------------------------------------------|
|3-------------------------------4-------------------------------|
|----------------------------------------------------------------|

  |               |               |               |
|----------------------------------------------------------------|
|0-------------------------------1-------------------------------|
|----------------------------------------------------------------|
|----------------------------------------------------------------|

  |               |               |               |
|----------------------------------------------------------------|
|--------------------------------2-------------------------------|
|3---------------------------------------------------------------|
|----------------------------------------------------------------|

  |               |               |               |
|----------------------------------------------------------------|
|3-------------------------------4-------------------------------|
|----------------------------------------------------------------|
|----------------------------------------------------------------|

  |               |               |               |
|----------------------------------------------------------------|
|--------------------------------0-------------------------------|
|3---------------------------------------------------------------|
|----------------------------------------------------------------|

  |               |               |               |
|0---------------------------------------------------------------|
|----------------------------------------------------------------|
|--------------------------------0-------------------------0-----|
|----------------------------------------------------------------|

  |               |               |               |
|----------------------------------------------------------------|
|0---------------------------------------------------------------|
|----------------------------------------------------------------|
|----------------------------------------------------------------|

  |               |               |               |
|0-------------------------------7-------------------------------|
|----------------------------------------------------------------|
|----------------------------------------------------------------|
|----------------------------------------------------------------|

  |               |               |               |
|----------------0-----------------------------------------------|
|------------------------------------------------1---------------|
|3-----------3-------------------4-------------------------------|
|----------------------------------------------------------------|

  |               |               |               |
|----------------------------------------------------------------|
|0---------------0---------------1-------------------------------|
|------------------------------------------------2---------------|
|----------------------------------------------------------------|

  |               |               |               |
|------------------------------------------------4---------------|
|----------------3---------------2-----------2-------------------|
|3---------------------------------------------------------------|
|----------------------------------------------------------------|

  |               |               |               |
|----------------5-----------------------------------------------|
|3-------------------------------4-------------------------------|
|----------3-------------------------------------2---------------|
|----------------------------------------------------------------|

  |               |               |               |
|--------------------------------7-----------7---2---------------|
|----------------------------------------------------------------|
|3---------------4-----------------------------------------------|
|----------------------------------------------------------------|

  |               |               |               |
|0-------------------------------5---------------0---------------|
|----------------------------------------------------------------|
|----------------4-----------------------------------------------|
|----------------------------------------------------------------|

  |               |               |               |
|----------------10--------------5---------------2---------------|
|3---------------------------------------------------------------|
|----------------------------------------------------------------|
|----------------------------------------------------------------|

  |               |               |               |
|----------------------------------------------------------------|
|------------------------------------------------2---------------|
|0---------------2---------------4-------------------------------|
|----------------------------------------------------------------|

  |               |               |               |
|--------------------------------2-------------------------------|
|0---------------------------------------------------------------|
|----------------------------------------------------------------|
|----------------------------------------------------------------|

  |               |               |               |
|7-------------------------------2-------------------------------|
|----------------------------------------------------------------|
|----------------------------------------------------------------|
|----------------------------------------------------------------|

  |               |               |               |
|----------------------------------------------------------------|
|--------------------------------2-------------------------------|
|0---------------------------------------------------------------|
|----------------------------------------------------------------|

  |               |               |               |
|2---------------------------------------------------------------|
|--------------------------------2-------------------------------|
|----------------------------------------------------------------|
|----------------------------------------------------------------|

  |               |               |               |
|--------------------------------2-------------------------------|
|0---------------------------------------------------------------|
|----------------------------------------------------------------|
|----------------------------------------------------------------|

  |               |               |               |
|0---------------------------------------------------------------|
|----------------------------------------------------------------|
|----------------------------------------------------------------|
|----------------------------------------------------------------|

  |               |               |               |
|----------------4-----------------------------------------------|
|2---------------------------------------------------------------|
|--------------------------------0-------------------------------|
|----------------------------------------------------------------|

  |               |               |               |
|--------------------------------0-------------------------------|
|0-----------------------3---------------------------------------|
|----------------------------------------------------------------|
|----------------------------------------------------------------|

  |               |               |               |
|----------------------------------------------------------------|
|----------------0-----------------------------------------------|
|3-------------------------------4---------------4---------------|
|----------------------------------------------------------------|

  |               |               |               |
|7---------------2-------------------------------2---------------|
|--------------------------------1-------------------------------|
|------------------------------------------0---------------------|
|----------------------------------------------------------------|

  |               |               |               |
|----------------------------------------------------------------|
|----------------1---------------2---------------2---------------|
|3---------------------------------------------------------------|
|----------------------------------------------------------------|

  |               |               |               |
|----------------5-----------------------------------------------|
|3-----------3-------------------4---------------4---------------|
|----------------------------------------------------------------|
|----------------------------------------------------------------|

  |               |               |               |
|--------------------------------7---------------2---------------|
|----------------------------------------------------------------|
|3---------------3-----------------------------------------------|
|----------------------------------------------------------------|

  |               |               |               |
|--------------------------------0-----------0---7---------------|
|0---------------4-----------------------------------------------|
|----------------------------------------------------------------|
|----------------------------------------------------------------|

  |               |               |               |
|----------------------------------------------------------------|
|------------------------------------------------2---------------|
|3---------------3---------------0-------------------------------|
|------------------------------------------0---------------------|

  |               |               |               |
|7-----------7---2---------------0-------------------------------|
|----------------------------------------------------------------|
|------------------------------------------------4---------------|
|----------------------------------------------------------------|

  |               |               |               |
|----------------0-----------------------------------------------|
|----------------------------------------------------------------|
|3-------------------------------4-------------------------------|
|----------------------------------------------------------------|

  |               |               |               |
|----------------2-------------------------------2---------------|
|0-------------------------------1-------------------------------|
|----------------------------------------------------------------|
|----------------------------------------------------------------|

  |               |               |               |
|----------------------------------------------------------------|
|--------------------------------2-------------------------------|
|3---------------------------------------------------------------|
|----------------------------------------------------------------|

  |               |               |               |
|----------------------------------------------------------------|
|3-------------------------------4-------------------------------|
|----------------------------------------------------------------|
|----------------------------------------------------------------|

  |               |               |               |
|----------------------------------------------------------------|
|--------------------------------0-------------------------0-----|
|3---------------------------------------------------------------|
|----------------------------------------------------------------|

  |               |               |               |
|0-------------------------0-------------------------------------|
|----------------------------------------------------------------|
|--------------------------------0-------------------------------|
|----------------------------------------------------------------|

  |               |               |               |
|--------------------------------2-------------------------------|
|0---------------------------------------------------------------|
|----------------------------------------------------------------|
|----------------------------------------------------------------|

  |               |               |               |
|0---------------12--------------7---------------4---------------|
|----------------------------------------------------------------|
|----------------------------------------------------------------|
|----------------------------------------------------------------|

  |               |               |               |
|5-----------5---0-----------------------------------------------|
|----------------------------------------------------------------|
|--------------------------------4---------------4---------------|
|----------------------------------------------------------------|

  |               |               |               |
|----------------2-------------------------------2---------------|
|0-----------0-------------------1-------------------------------|
|----------------------------------------------------------------|
|----------------------------------------------------------------|

  |               |               |               |
|----------------------------------------------------------------|
|----------------1---------------2---------------2---------------|
|3---------------------------------------------------------------|
|----------------------------------------------------------------|

  |               |               |               |
|----------------5-----------------------------------------------|
|3-------------------------------4---------------4---------------|
|----------3-----------------------------------------------------|
|----------------------------------------------------------------|

  |               |               |               |
|------------------------------------------------2---------------|
|--------------------------------0-------------------------------|
|3---------------3-----------------------------------------------|
|----------------------------------------------------------------|

  |               |               |               |
|0---------------7-----------------------------------------------|
|----------0-----------------------------------------------------|
|--------------------------------3---------------3---------------|
|----------------------------------------------------------------|

  |               |               |               |
|----------------0---------------2---------------5---------------|
|3-----------3---------------------------------------------------|
|----------------------------------------------------------------|
|----------------------------------------------------------------|

  |               |               |               |
|----------------------------------------------------------------|
|------------------------------------------------2---------------|
|0---------------2---------------4-------------------------------|
|----------------------------------------------------------------|

  |               |               |               |
|--------------------------------2-------------------------------|
|0---------------------------------------------------------------|
|----------------------------------------------------------------|
|----------------------------------------------------------------|

  |               |               |               |
|7-------------------------------2-------------------------------|
|----------------------------------------------------------------|
|----------------------------------------------------------------|
|----------------------------------------------------------------|

  |               |               |               |
|----------------------------------------------------------------|
|--------------------------------2-------------------------------|
|0---------------------------------------------------------------|
|----------------------------------------------------------------|

  |               |               |               |
|2---------------------------------------------------------------|
|--------------------------------2-------------------------------|
|----------------------------------------------------------------|
|----------------------------------------------------------------|

  |               |               |               |
|--------------------------------2-------------------------------|
|0---------------------------------------------------------------|
|----------------------------------------------------------------|
|----------------------------------------------------------------|

  |               |               |               |
|0---------------------------------------------------------------|
|--------------------------------0-------------------------------|
|----------------------------------------------------------------|
|----------------------------------------------------------------|

  |               |               |               |
|----------------------------------------------------------------|
|2---------------------------------------------------------------|
|--------------------------------0-------------------------0-----|
|--------------------------0-------------------------------------|

  |               |               |               |
|--------------------------------0-------------------------------|
|0---------------------------------------------------------------|
|----------------------------------------------------------------|
|----------------------------------------------------------------|

  |               |               |               |
|----------------------------------------------------------------|
|----------------------------------------------------------------|
|3---------------3---------------4---------------4---------------|
|----------------------------------------------------------------|

  |               |               |               |
|----------------2-------------------------------2---------------|
|0-----------0-------------------1-------------------------------|
|------------------------------------------0---------------------|
|----------------------------------------------------------------|

  |               |               |               |
|----------------0-----------------------------------------------|
|--------------------------------2---------------4---------------|
|3---------------------------------------------------------------|
|----------3-----------------------------------------------------|

  |               |               |               |
|----------------0-----------------------------------------------|
|3-------------------------------4---------------4---------------|
|----------------------------------------------------------------|
|----------------------------------------------------------------|

  |               |               |               |
|----------------0-----------------------------------------------|
|--------------------------------0---------------1---------------|
|3---------------------------------------------------------------|
|----------------------------------------------------------------|

  |               |               |               |
|----------------2---------------0---------------0---------------|
|0---------------------------------------------------------------|
|----------0-----------------------------------------------------|
|----------------------------------------------------------------|

  |               |               |               |
|----------------------------------------------------------------|
|--------------------------------3-------------------------------|
|3---------------3-------------------------------4---------------|
|----------------------------------------------------------------|

  |               |               |               |
|----------------0---------------5---------------0---------------|
|----------------------------------------------------------------|
|3---------------------------------------------------------------|
|----------------------------------------------------------------|

  |               |               |               |
|5---------------------------------------------------------------|
|----------------------------------------------------------------|
|----------------------------3-----------------------------------|
|----------------------------------------------------------------|



Created with TablEdit http://www.tabledit.com/

     
Добавлено: 07.12.2013
Другие материалы по этой песне:

Страница создана 24.02.2012
http://primanota.ru/frank-sinatra/bewitched-chords.htm
Привет, Гость.
Предлагаем пройти революционный курс по гитаре.
Подарок от PrimaNota.Ru, забирай!