PrimaNota.ru - самый крупный в мире бесплатный архив песенных текстов, аккордов, табулатур и нот


Frank Mills - Music Box Dancer - таба, видео

Регистрация Запомнить меня
Войти через:  Facebook Google Twitter Vk Yandex Mail.ru

Frank Mills - Music Box Dancer - таба, видео

Печатать
Просмотров: 246
Авторы музыки: Frank Mills

Music Box Dancer
by Frank Mills
Copyright 1974

I didn't write this song, all I did was transcribe it from piano to guitar. Played 
in the key of C major. The names of the rythm chords are written over the lead.

LEAD (GUITAR 1)
      C                                             F           C      G7        C
|----------------3---|-8-7-5---|-----------------|-----5--------|
|----------5---5-----|-------8-|-8-6-----------6-|-5-----8------|
|--5-5---5---5-----5-|---------|-----7-4---4-7---|---5--------5-|
|------5-------------|---------|---------5-------|--------------|
|--------------------|---------|-----------------|--------------|

      C                                       F                     G7         C
|--------------3---|-8-7-5---|-----------------|---------|
|--------5---5-----|-------8-|-8-6-------------|-----5---|
|--5---5---5-----5-|---------|-----7-4---4-7-4-|-5-----5-|
|----5-------------|---------|---------5-------|---5-----|
|------------------|---------|-----------------|---------|
|------------------|---------|-----------------|---------|

   C                                                                   F     C  G7
|-----------------------15----|-20-19-17----|-------------------|
|--------------17----17-------|----------20-|-20-18-------------|
|--17-17----17----17-------17-|-------------|-------19-16----16-|
|--------17-------------------|-------------|-------------17----|
|-----------------------------|-------------|-------------------|
|-----------------------------|-------------|-------------------|

                                                    C                      F            C
|--------------17----|----------------------15----|-20-19-17----|
|-----18-17----------|-------------17----17-------|----------20-|
|--19-------17----20-|-17-17----17----17-------17-|-------------|
|--------------------|-------17-------------------|-------------|
|--------------------|----------------------------|-------------|
|--------------------|----------------------------|-------------|

   G7                                               C                             F
|--------------------------|-------------|-13----------------------|
|--20-18-------------------|-------17----|-13-13----------------13-|
|--------19-16----16-19-16-|-17-------17-|-14----14----------14----|
|--------------17----------|----17-------|-15-------15----15-------|
|--------------------------|-------------|-------------15----------|
|--------------------------|-------------|-------------------------|

  C                          G7                                                   C
|--------------|-----------------------|------------|
|--------------|-8---------------------|------10----|
|--12----14-12-|-7--10--------------10-|-9-------12-|
|-----10-------|-9-----12-9----9-12----|---10-------|
|--------------|-10---------10---------|------------|
|--------------|-----------------------|------------|

  F                                                              C                          G7
|--13----------------------|----------------------|----------------------|
|--13-13----------------13-|----------------------|-8--------------------|
|--14----14----------14----|-12----14-12----------|-7--10----------------|
|--15-------15----15-------|----10-------10-10-10-|-9-----12-9----9-12-9-|
|--------------15----------|----------------------|-10---------10--------|
|--------------------------|----------------------|----------------------|

  C
|--------------|-||
|--------9-----|-||
|-------------•|-||
|--10------10-•|-||
|-----10-------|-||
|--------------|-||
Добавлено: 26.06.2012
Вам также может быть интересно:
Другие материалы по этой песне:

Страница создана 26.06.2012
http://primanota.ru/frank-mills/music-box-dancer-chords.htm
Привет, Гость.
Предлагаем пройти революционный курс по гитаре.
Подарок от PrimaNota.Ru, забирай!