- самый крупный в мире бесплатный архив песенных текстов, аккордов, табулатур и нот

Frank Marino - Dragonfly - таба, видео

Регистрация Запомнить меня
Войти через:  Facebook Google Twitter Vk Yandex

Frank Marino - Dragonfly - таба, видео

Просмотров: 115
DRAGONFLY   Key of E  standard tuning

artist: Frank Marino and Mahogany Rush
album:  Mahogany Rush IV
year:   1976
tab by  burnleaf

figure E

E --------------------------|------------------------|
B ---8-----8----------------|---8-----8--------------|
G ---7-----7----------------|---7-----7--------------|
D ---5-----5----------------|---5-----5--------------|
A -7-----7---7---5-7-5------|-7-----7---7---5-7------|
E ---------------------7----|------------------------|

figure G

E ------------------------|--------------------|
B ------------------------|--------------------|
G ----3---3---------------|---3---3------------|
D ----3---3--5---3-5-3----|---3---3--5---3-5---|
A ---------------------5--|--------------------|
E --3---3-----------------|-3---3--------------|


    G  A  F#m7  E

E ---------2--|-------------------------|---------------------|
B ---------2--|---8-----8---------------|---8-----8-----------|
G --4--2---2--|---7-----7---------------|---7-----7-----------|
D --5--2---2--|---5-----5---------------|---5-----5-----------|
A --5--0------|-7-----7---7---5-7-5-----|-7-----7---7---5-7---|
E --3---------|---------------------7---|---------------------|

ending chords

     G  A   F#m7   E

E -----------14--|-------------------------|----------------------|
B --12--14---14--|---8-----8---------------|---8-----8------------|
G --12--14---14--|---7-----7---------------|---7-----7------------|
D --12--14---14--|---5-----5---------------|---5-----5------------|
A --10--12-------|-7-----7---7---5-7-5-----|-7-----7---7---5-7----|
E ---------------|---------------------7---|----------------------|


Well listen, someday
You'll hear a rush of wings
So distant, a sound of secret things


There, look there, up in that rusty sky


Yonder, sweeps the dragonfly


So awesome, he blocks the setting sun


He'll come to collect the souls of everyone

	G    A  F#m7  E

	Come dragon, come

	G    A  F#m7  E

	In from the sun


He floats with an eerie grace
A giant blue green sentinal
From some distant time and space


And because he'll come, he'll have no regrets


Surely he'll come to lay this birth to rest


I know one day you'll see him
But please don't ask me why


He will be a secret dragonfly

	G   A  F#m7 E

	Fly dragon fly,

	G    A    F#m7 E

	here from the sky

-- guitar solo --


So if you hear that sound I'm talkin' about
When you know he's near
When your times run out
Well don't you fear
There's nothing that you can say
Cause he'll appear and take you to that special place

G     A    F#m7 E

He'll take you there
He'll take you there
He'll take you there
He'll take you there
He'll take you there
Добавлено: 17.04.2012
Другие материалы по этой песне:
  • Аккорды и текст

Страница создана 17.04.2012
Привет, Гость.
Предлагаем пройти революционный курс по гитаре.
Подарок от PrimaNota.Ru, забирай!